Acordes de Guitarra » I »Intoxicados » Reggae para los amigos (Tab)

Reggae para los amigos
Intoxicados

Letras, Acordes y Tabs para Guitarra, Bajo y Ukulele

  • Intro: F#m
    
    e|---------------
    B|---------------
    G|---------------  x4
    D|---------------
    A|------4-5-4--2-
    E|-2-2-----------
    
    
    F#m
    Me gusta el raggea y yo quiero dejar en claro mi mensaje
    no me agrada esa gente que con gestos demuestran bien
    su expresión, esta canción yo la hice para todos mis queridos
    amigos, con este humilde ritmo les digo, los admiro y necesito
    
    Bm
    Y voy dejar que las palabras salgan solas la energía que me dan
    es lo que hace latir a mi corazón, nunca estoy solo porque con
    mi imaginación siempre está cerca a quien debo yo agradecer
    
  • E-12b--------------------------------10h12-10-------------------
    B----------------------------8/10-12----------13-12-12/13-10-12-
    G------9-11/12-9--11/12-9------------------------------------
    D---------------------------------------------------------------
    A---------------------------------------------------------------
    E---------------------------------------------------------------
    
    E-----------------------------------
    B-----------------------------------
    G-12-9-11-11/12-11-9---------9------
    D--------------------12-9-12---12-9-
    
    
    E---------------------------------------------------------12-10-------
    B---------------------------------------------------------------10-12-
    G-----------------------------9----14-12-11-11h12---------------------
    D-------------9--9-12-11--9-9----12--------------12-9---9---9--9------
    A---10-9-10-12----------12--------------------------------------------
    E-12------------------------------------------------------------------
    
    E-10-9-7---10-9-7--9-7-------------
  • Le hice algunas modificaciones a la transcripcion anterior..
    Creo que ahi esta perfecta. Practiquenla que es facil
    
    
    ~: Hacer vibrar
    s: Deslizar
    
    1)---10s12~--------------------------------------------
    2)----------------------------------------8s10--9s12~--
    3)------------9-11s12s11-9---9-11s12s11-9--------------
    4)-----------------------------------------------------
    5)-----------------------------------------------------
    6)-----------------------------------------------------
    
    1)--10s12-10----------------------------------------------------
    2)----------13-12--12s13s12-10-12-8---7-7-7s8s7-----------------
    3)-----------------------------------9----------9-7--7--7s9s7---
    4)--------------------------------------------------9--------9--
    5)--------------------------------------------------------------
    6)--------------------------------------------------------------
    
    1)--------------------------------------------------------
    2)-------------------------------------10-8-7-7s8s7-------
    3)------
  • E-------------------------]
    A------------4------------] Base 'A'
    D-4-4-2-2-4----2-4-4-2-2-4]
    G-------------------------]
    
    E------------2------------]
    A-2-2-0-0-2----0-2-2-0-0-2] Base 'B'
    D-------------------------]
    G-------------------------]
    
    E-------------------------]
    A------------2------------] Base 'c'
    D-2-2-0-0-2----0-2-2-0-0-2]
    G-------------------------]
    
    
    'A'
    Me gusta el reggae cuando quiero dejar bien claro
    mi mensaje, Me agrada esa gente que con gestos 
    demuestra bien su expresión.
    Esta canción la hice pára todos mis queridos amigos,
    con este humilde ritmo les digo 'los admiro y los 
    necesito'
    
    'B'
    Y voy a dejar que las palabras salgan solas,
    la energía que me dan es la que hace latir a
    mi corazón.
    Nunca estoy solo porque con mi imaginación
    siempre están cerca, ¿A quién debo agradecer
    este bonito regalo que la vida me dio?
    
    'A'
    Que buena familia me tocó, que buenos amigos
    pude encontrar, no se si fue casualidad pero
    creo que tuve 
  • INTRO
    
    G|--------------------------------------------------
    D|--------------------------------------------------
    A|---9-9--7-7--9-----7--9-9—-7-7--9-----------------
    E|----------------9--------------------------------- X3
    
    G|------------------------------------------------------------------
    D|------------------------------------------------------------------
    A|---9-9-9--7-7--9-----7--9-9—-7-7--9-------------------------------
    E|------------------9-------------------5-7--7-5--------------------
    
    G|----------------------------------------    -----------------
    D|----------------------------------------    -----------------
    A|---9-9-9--7-7--9-----7--9-9—-7-7--9-----    -----------------
    E|------------------9--------------------- X2 ----7h0----------
    
    G|--------------------------------------------------
    D|--------------------------------------------------
    A|----9-9--7-7--9-----7--9-9—-7-7--9----------------
    E|-----------------9-------------------------------- X2
    
    G|---------------------
  • +
    ¡Colabora con nosotros!
    Envíanos tu versión de esta canción

Letra de Reggae para los amigos
Me gusta el raggea y yo quiero dejar en claro mi mensaje
no me agrada esa gente que con gestos demuestran bien
su expresión, esta canción yo la hice para todos mis queridos
amigos, con este humilde ritmo les digo, los admiro y necesito
Y voy dejar que las palabras salgan solas la energía que me dan
es lo que hace latir a mi corazón, nunca estoy solo porque con
mi imaginación siempre está cerca a quien debo yo agradecer
este bonito regalo que la vida me dio.
Que buena familia me tocó y que buenos amigos pude encontrar
no se si fue casualidad pero creo que tuve mucha suerte.
no es fácil cruzarse con gente con tanta onda conectada a tan
loca frecuencia es que un amigo es un hermano un maestro
es parte de pasado.
Y voy dejar que las palabras salgan solas la energía que me dan
es lo que hace latir a mi corazón
Y voy dejar que las palabras salgan solas la energía que me dan
es lo que hace latir a mi corazón, nunca estoy solo porque con
mi imaginación siempre está cerca a quien debo yo agradecer
este bonito regalo que la vida me dio.
~: Hacer vibrar
s: Deslizar
Me gusta el raggea y yo quiero dejar en claro mi mensaje
no me agrada esa gente que con gestos demuestran bien
su expresión, esta canción yo la hice para todos mis queridos
amigos, con este humilde ritmo les digo, los admiro y necesito




[Reggae para los amigos chords][Reggae para los amigos cifra]
© LaCuerda.net · aviso legal · privacidad · es · en · pt · contacto