Acordes de Guitarra » I »Intoxicados » Rodando por ahí (Tab)

Rodando por ahí
Intoxicados

Letras, Acordes y Tabs para Guitarra, Bajo y Ukulele

  •    G               C             G                 |
    |---------------------------|  |---------------|   | 
    |---------------------------|  |---------------|   |
    |------------------5-5-5~---|  |---------------|   | x2  
    |------------------5-5-5~---|x3|---------------|   |
    |-----1--3---------3-3-3~---|  |-----1--3------|   |
    |---3------3---3------------|  |---3------3----|   |
                                                      _|
                                                       
    
    
    G5                                                 C5
    Cuando pienso cuanto tiempo de mi vida voy llevando
    G5                                           C5
    cuando me acuerdo de cosas y lugares que pase
    G5                                         C5
    las canciones que hice mientras iba jugando
    G5                                       C5
    la primera vez que en verdad me embriagué
    
    
  • e|-----------------|------------------------|-----------------
    B|-----------------|-3s6--6-6--3-3----0-----|-----------------
    G|---3-5-3----5--5-|-4s7--7-7--4-4s2--0---0-|-----------------
    D|-5-3-5-3-5--5--5-|--------------------2-0-|-5---5-----------
    A|---------5-------|------------------------|-5---5---5ba-3-3-
    E|-----------------|------------------------|-3---3-----------
    
    Intro:
    
    Riff 1 toda la intro
    
    y se van alternando riff 2 y riff 3
    
      Riff 4          Riff 5      Riff 6      Riff 7     Riff 8
    e|--------------|-----------|------------|---------|-------------|
    B|--------------|-----------|------------|---------|-----3-------|
    G|-5--5----5--5-|-----------|-5--------5-|-------5-|-2s4---4s2-0-|
    D|-5--5----5--5-|-5-5---5-5-|-5---7ba--5-|-7ba-5-5-|-------------|
    A|-3--3----3--3-|-5-5---5-5-|-3----------|---------|-------------|
    E|--------------|-3-3---3-3-|------------|---------|-------------|
    
  •    SOL       DO
    e|-----------------------
    B|--------------5--5-----
    G|--0--3--5--0--5--5------   > x8
    D|--0--3--5--0--5--5------
    A|-----------------------
    E|-----------------------
    
    SOL                                      DO
    Pienso cuanto tiempo de vida voy llevando
    SOL                                          DO
    Cuando me acuerdo de cosas y lugares que pase
    SOL                                         DO
    Las estaciones que hice mientras iba jugando
    SOL                                      DO
    La primera vez que en verdad me embrague
    SOL                                       DO
    Mucha gente he conocido en barrios lejanos
    
    ¿Cuantas veces aburrido al diablo llame?
    
  • +
    ¡Colabora con nosotros!
    Envíanos tu versión de esta canción

Letra de Rodando por ahí
_|

Cuando pienso cuanto tiempo de mi vida voy llevando
cuando me acuerdo de cosas y lugares que pase
las canciones que hice mientras iba jugando
la primera vez que en verdad me embriagué
Mucha gente eh conocido en barrios lejanos
cuantas veces aburrido al diablo llame
de cuantas chicas buenas me e enamorado
cuanto vino tinto caliente tome
todo eso me dice que estuve rodando
(rodando por ahí, rodando por ahí)
no se cuando empecé ni cuando comencé
(rodando por ahí, rodando por ahí)
todo eso me dice que estuve rodando
Estuve rodando por ahí
Estuve rodando por ahí
Estuve rodando por ahí
Riff 2 x2
cuando los meses pasan y mi ropa no ha cambiado
cuando me acuerdo de foto que nunca saque
todo eso me dice que estuve rodando
y ni siquiera me acuerdo cuando comence
mucha gente he conocido en barrios lejanos
muchas veces aburrido al diablo llame
de cuantas chicas buenas me e enamorado
cuanto vino tinto caliente tome
todo eso me dice que estuve rodando
(rodando por ahí, rodando por ahí)
no sé cuando empecé ni cuando comencé
(rodando por ahí, rodando por ahí)
todo eso me dice que estuve rodando
Estuve rodando por ahí
Estuve rodando por ahí
Estuve rodando por ahí
Estuve rodando por ahí
Estuve rodando por ahí
Estuve rodando por ahí
Riff 2 x4




[Rodando por ahí chords][Rodando por ahí cifra]
© LaCuerda.net · aviso legal · privacidad · es · en · pt · contacto
DINAMICO