Acordes de Guitarra » I »Intoxicados » Religión (Tab)

Religión
Intoxicados

Letras, Acordes y Tabs para Guitarra, Bajo y Ukulele

  • INTRO: RE5 / LA#5 / DOM5 / LA x2 + Riff x2
    ---------------------------------------------------------
    ---------------------------------------------------------
    ---------------------------------------------------------
    ------3-2-0-/-----3-2-0-3-2--/------/--------------------
    --4-5-------/-4-5----------1-/1-2-3-/-3-5-3-6-3-5-3---5--
    ------------/----------------/------/---------------5---5
    
    
    RE5
    poco a poco pude notar
    LA#5
    que en la vida hay mas de una realidad
    DOM5
    cada casa es un mundo,
    cada mente un planeta
    LA5
    donde tus ideas forman tu personalidad
    
    Nada esta bien nada esta mal
    
  • E|--------------------------------------------------8-7-5---5|
    A|-5-7-8-7-5--5-6-7-8-7-5-3-5-3-1--1-2-3--5-6-7-8-5-------5--|
    D|-----------------------------------------------------------|x2
    G|-----------------------------------------------------------|
    B|-----------------------------------------------------------|
    e|-----------------------------------------------------------|
    
    D5
    Poco a poco pude notar
              A#5
    que en la vida hay mas de una realidad
             C5
    que cada casa es un mundo cada mente un planeta
          A5
    donde tus ideas forman tu personalidad
    
    nada esta bien, nada esta mal
    todo es distinto es mi forma de pensar
    no estoy arrepentido por lo que hice ayer
    pero lo que no me gusto voy a tratar de cambiar
    
  • Intro: D5 - A#5 - C5 - A5
    
    Riff Intro:
    
    e/--------------------------------------------------------------------
    b/--------------------------------------------------------------------
    g/--------------------------------------------------------------------
    d/--------------------------------------------------------------------
    a/--5---7-8--7-5----5--7-8-7-5---5------------5-------5-7-5--------5--
    e/-----------------------------8---8--6---6-8---8---8-------8-6-5----5
    
    -------------------------------->x2<--------------------------------/
    
    
    D5
    poco a poco pude notar
         A#5
    que en la vida hay mas de una realidad
        C5
    cada casa es un mundo,
    
  •   Intro
    e|--------------------------------------------------------------------
    B|--------------------------------------------------------------------
    G|--------------------------------------------------------------------
    D|--------------------------------------------------------------------
    A|-5--7-8-7-5---5-5--7-8-7--5----5-------3h5-3--------5-7-5--------5--
    E|----------------------------8-----8-6-----------6-6--------8-6-5---5
    
    
    
      Solo
    e/---------------------------------------------------------------------
    b/---------------------------------------------------------------------
    g/-/10-9-10-12--10-9-9---------------------9-10-9----------------------
    d/----------------------12-10--8---8-10-12-----------------------------
    a/---------------------------------------------------------------------
    e/---------------------------------------------------------------------
    
    e/-------------------------------------------------------------10-------
    b/---------------------------------10-11-13-13b-13
  • Hola que tal, aca mando el solo de Religión, un temaso de Intoxica2, que fue por muchisimos pedidos al mail.
    Un beso enorme a todo el colegio Santa Clara y al Grego.
    
    SOLO
    
    1|---------------------------------------------------------------------------------------------------------------|
     |---------------------------------------------------------------------------------------10-11-13-13b13-11-10----|
     |-10---9-10--12-10--10-10-----------------------9^10^9--12-12-12--10-9----------9-10-12-------------------------|
     |-------------------------12--10---------10-12-------------------------12-10-12---------------------------------|
     |--------------------------------13---13------------------------------------------------------------------------|
    6|---------------------------------------------------------------------------------------------------------------|
    
    
    1|------10--------10^13----10-------------------------------------------------------------------------------10---------10
  • +
    ¡Colabora con nosotros!
    Envíanos tu versión de esta canción

Letra de Religión
poco a poco pude notar
que en la vida hay mas de una realidad
cada casa es un mundo,
cada mente un planeta
donde tus ideas forman tu personalidad
Nada esta bien nada esta mal
todo es distinto es tu forma de pensar
no estoy arrepentido por lo que hice ayer
pero lo que no te gusto
voy a tratar de cambiar
Muchos confunden la felicidad
con todas esas cosas que no pueden comprar
yo no se si sera la televisión
que les muestra un culo que no pueden tocar
Mis amigos, mi familia, mi perro y el sol
son las cosas que yo tengo como religión
la vida es tan sencilla pero algunos no lo ven
y solo buscan subirse a un marcedes benz
cual es la diferencia entre un remisero,
un obrero, un profesor de facultad
un cantante de rock,el que vende estampitas
vivir en el campo o vivir en la ciudad
si da lo mismo ser linyera que millonario
robar toda la vida o salir a laburar
ser lindo,ser feo,ser bueno,ser malo
lo importante es si supiste disfrutar
Hola.... Bueno... suena bastante bien prueben... saludos




[Religión chords][Religión cifra]
© LaCuerda.net · aviso legal · privacidad · es · en · pt · contacto