Tablatura para Bajo de Intoxicados: Pila Pila
Conexión · Inscripción
Letras y Acordes
Pantalla Completa
Imprimir
Versión Texto
Añadir Favorito
Otras Versiones

Mostrar Diagramas
Desfile Automático
Formato del Texto


Pila Pila(BAJ)

Intoxicados

calidad:
intx0425
AUTOR: Pity Alvarez
ALBUM: desconocido
Enviado por Carolina
Las intro están hechas pizzicato con cuerdas de violín y cello.
Pero se pueden tocar con guitarra y el bajo,les paso las tabs


Intro


g-------2------------2-----------------
D--0--4---------0--4-------------------
A----------0-------------0--------------
E--------------------------------------repite

Este motivo varía según el tono que toca Pity:

Estrofa 1- la primera vez se toca junto con la guitarra de Pity

    D
g-------2------------2-----------------
D--0--4---------0--4-------------------
A----------0-------------0--------------
E--------------------------------------repite


   A

g---------------------------
D-------2------------2------
A--0--4---------0--4--------
E-----------0-----------0---repite

    G

g----4-7-------4-7--------
D--5---------5------5-----
A--------5-----------------
E--------------------------repite



La 2º vuelta solamente rasguido y de ahí en más.

**********
Dice Pity Álvarez: “el título y el espíritu del tema
hacen referencia a un estado químico, anímico, emocional
y espiritual donde la energía se transforma en acción.
Donde la acción se transforma en fiesta.
Donde la fiesta celebra la vida.
Donde la vida celebra la música.”
**********

Tema dedicado a Niko de "La Tripera RNR"

Caro
Este fichero es trabajo propio de su transcriptor y representa su interpretación personal de la canción. El material contenido en esta página es
para exclusivo uso privado, por lo que se prohibe su reproducción o retransmisión, así como su uso para fines comerciales.

© LaCuerda.net · Aviso Legal · Privacidad