Acordes de Guitarra » I »Intoxicados » Felicidad, depresión (Tab)

Felicidad, depresión
Intoxicados

Letras, Acordes y Tabs para Guitarra, Bajo y Ukulele

  • Intoxicados- Felicidad, depresión
    
    Estrofas con base(A, Am) con arpegios
    
       
    No tengo ganas de subir, pero tampoco de bajar
    Pensar tanto no tiene sentido, no veo la gente al pasar
    Es tan difícil ser feliz, pero no es inalcanzable
    Solo debo destruir, esas cosas que en mi mente arden
    
     A          B              C# D                    A
    Quiero saber que voy a hacer para encontrarle el sentido
    A           B       C# D                 A
    Felicidad, depresión  de la mano en el camino
    
    Solo de saxo(A, D, A, D, A, D, E, D, E, D, A)
    
    Con base(A, Am)
    
    Todo es tan fácil que se hace difícil, aunque me pueda entretener
    Y me dan ganas de alejarme, pero estando lejos quiero volver
    Es tan difícil ser feliz, pero no es inalcanzable
    Solo debo destruir, esas cosas que en mi mente arden
    
    A           B              C# D                   A
    Quiero saber que voy a hacer para encontrarle el sentido
    
  •    A                                  Am
    e|-------------------------------------------------------------------
    B|-------2-----2-----2-----2------2---------1-----1-----1-----1-----1
    G|-----2---2-----2-----2-----2------------2---2-----2-----2-----2----
    D|---2-------2-----2-----2-----2--------2-------2-----2-----2-----2--
    A|-0----------------------------------0------------------------------
    E|-------------------------------------------------------------------
    
    Riffs
       1
    e|------------0-0--------------
    B|-------1-1------1-1-----1-1--
    G|-----2--------------2-2------
    D|---2-------------------------
    A|-0---------------------------
    E|-----------------------------
    
       2                     3
    e|----------------------|-------------------|
    B|----------------------|-------------------|
    
  • +
    ¡Colabora con nosotros!
    Envíanos tu versión de esta canción

Letra de Felicidad, depresión
Quiero saber que voy a hacer para encontrarle el sentido
Felicidad, depresión de la mano en el camino
Con base(A, Am)
Todo es tan fácil que se hace difícil, aunque me pueda entretener
Y me dan ganas de alejarme, pero estando lejos quiero volver
Es tan difícil ser feliz, pero no es inalcanzable
Quiero saber que voy a hacer para encontrarle el sentido
Felicidad, depresión de la mano en el camino. [x3]




[Felicidad, depresión chords][Felicidad, depresión cifra]
© LaCuerda.net · aviso legal · privacidad · es · en · pt · contacto
DINAMICO