Acordes de Guitarra » I »Interpuesto » Yo quisiera que sepas (Tab)

Yo quisiera que sepas
Interpuesto

Letras, Acordes y Tabs para Guitarra, Bajo y Ukulele

  •      G                Em  
          YO QUISIERA QUE SEPAS
         C                D   
          LO QUE TU SIGNIFICAS
         G               Em 
          ERES TODO MI ANHELO 
         C                 D 
          MI ALMA TU DIGNIFICAS
    
         C                D
          CONTIGO SOY UN HOMBRE 
                   G          Em 
          Y NO ME FALTA EL VALOR 
         C                   D
          DE ALCANZAR MIS IDEALES
                   G             Em 
          QUE POR TI MUY NOBLES SON
         G         Em     C             D     
          Y NO ME DEJES PORQUE VOY A LLORAR
    
    
  •      F                Dm
          YO QUISIERA QUE SEPAS
         A#              C
          LO QUE TU SIGNIFICAS
         F                Dm
          QUE ERES TODO MI ANHELO
         A#               C
          MI ALMA TU DIGNIFICAS
    
    
         Dm              A#
          CONTIGO SOY UN HOMBRE
                  C          Dm
          Y NO ME FALTA EL VALOR
                             A#
          DE ALCANZAR MIS IDEALES
                  C             Dm
          QUE POR TI MUY NOBLES SON
         F        C     A#              C
          Y NO ME DEJES PORQUE VOY A LLORAR
    
  • INTRO
    
    e--3----3---3---3---3----7----7---7---7---7-----3----3---3---3---3-----
    B--3----3---3---3---3----8----8---8---8---8-----5----5---5---5---5-----
    G--4----4---4---4---4----9----9---9---9---9-----5----5---5---5---5-----
    D--5----5---5---5---5----9----9---9---9---9-----5----5---5---5---5-----
    A--5----5---5---5---5--------------------------------------------------
    E----------------------------------------------------------------------
    
    e--5----5---5---5---5---------------------------------------------------
    B--7----7---7---7---7-----12b--10----------------13---12---10-----10----
    G--7----7---7---7---7-------------12--11--12--9---------------12-----11-
    D--7----7---7---7---7---------------------------------------------------
    A-----------------------------------------------------------------------
    E-----------------------------------------------------------------------
    
    e-----------------------------------------------------------------------
    B---12b---10------------------13--12--10--------
  • INTRO
    
    
    eI-7s9v--7--5----5-----------------I
    bI-------------9----7--------------I
    gI---------------------------------I
    dI---------------------------------I
    aI---------------------------------I
    eI---------------------------------I
    
    eI--9s10-10v--9--7-----7-----------I
    bI-----------------10-----9--------I
    gI---------------------------------I
    dI---------------------------------I
    aI---------------------------------I
    eI---------------------------------I
    
    eI--9-7-5----5---------------------I
    bI---------9----7------------------I
    gI---------------------------------I
    dI---------------------------------I
    aI---------------------------------I
    eI---------------------------------I
    
    eI--9s10-10v--9--7-----7-----------I
    bI-----------------10-----9v-------I
    gI---------------------------------I
    dI---------------------------------I
    aI---------------------------------I
    eI---------------------------------I
    
    eI-7s9v--7--5----5-----------------I
    bI-------------9----7v-------------I
    gI------------------------
  • +
    ¡Colabora con nosotros!
    Envíanos tu versión de esta canción

Letra de Yo quisiera que sepas
YO QUISIERA QUE SEPAS
LO QUE TU SIGNIFICAS
ERES TODO MI ANHELO
MI ALMA TU DIGNIFICAS
CONTIGO SOY UN HOMBRE
Y NO ME FALTA EL VALOR
DE ALCANZAR MIS IDEALES
QUE POR TI MUY NOBLES SON
Y NO ME DEJES PORQUE VOY A LLORAR
ERES MI CONSEJERA
SIEMPRE ME CONSIDERAS
CON TU RISA ME ALIENTAS
PARA VENCER COMPAÑERA
CUANDO PIENSO EN TU CARIÑO
SOY TAN FELIZ QUE QUISIERA LLORAR
Y GRITAR A TODO EL MUNDO TU NOMBRE
MI VIDA SIN DESCANZAR
Y NO ME DEJES PORQUE VOY A LLORAR
YO QUISIERA QUE SEPAS
LO QUE TU SIGNIFICAS
ERES TODO MI ANHELO
MI ALMA TI DIGNIFICAS
CONTIGO SOY UN HOMBRE
Y NO ME FALTA EL VALOR
DE ALCANZAR MIS IDEALES
QUE POR TI MUY NOBLES SON
Y NO ME DEJES PORQUE VOY A LLORAR

ERES MI NOBLE ESTRELLA
MI CANCION PREFERIDA
YO CONTIGO HE PERDIDO
SOLEDAD Y TRISTEZA
Y AUNQUE EL MUNDO NO LO CREA
SOLAMENTE NACI PARA AMARTE
Y AHORA QUE YA ESTOY CONTIGO
NO ME CANSO NUNCA DE VERTE
Y NO ME DEJES PORQUE VOY A LLORAR




[Yo quisiera que sepas chords][Yo quisiera que sepas cifra]
© LaCuerda.net · aviso legal · privacidad · es · en · pt · contacto