Acordes de Guitarra » I »Interpuesto » Historia de un minuto (Tab)

Historia de un minuto
Interpuesto

Letras, Acordes y Tabs para Guitarra, Bajo y Ukulele

  • SOL,MIm,DO,RE
    
    SOL                            MIm
    Ella convirtio la noche en un poema de amor
    DO                             RE
    ella prometio mil dias de alegria solo a el
    SOL                                     MIm
    luego el tiempo hablo, no todo fue tan bello no,no,no
    DO                            RE
    ella se marcho dejandole una carta en el buro 
    
    "y la carta decia"
    
    SOL                SOL FA# MIm                DO
    Estoy harta de todo            de tanto rodar
                                 RE
    no es culpa tuya es solo mi forma de ser, pero
    SOL                             MIm
    esta noche no, no pienso ir a buscarla no,no,no 
    DO                            RE
    
  • Bueno, estos son los solillos de la canción, ya puse
    el bajeo  y ahora los solos, nadamas me faltaron los 
    acordes q se me adelantaron. jejeje, espero q la 
    disfruten
    
    
    SOLO DEL INTRO
    
    e|--12*14*12-------------------------------------|
    B|-----------15---13-12-10-8-10 10/12-10-8-7-7*8-|
    G|-----------------------------------------------|
    D|-----------------------------------------------|
    A|-----------------------------------------------|
    E|-----------------------------------------------|
    
    
    e|-------------------------------------------14/*15~-|
    B|-10-8-10/12-13-12-13/15-17-15-17~--15-13-15--------|
    G|---------------------------------------------------|
    D|---------------------------------------------------|
    A|---------------------------------------------------|
    E|---------------------------------------------------|
    
    
    SOLO
    
    e|-7*5---5--5-7*5--5---5-7*5---5--5--7*5--5----------|
    B|-----8--8------8---8-------8---8------8---8-7-7-8--|
    G|----------------------------
  •  SOL,MIm,DO,RE
      g, Em, c, d
    
    o bien podemos sustituir el silbido con este punteo:
    
    e ---------7-7----------------
    B -------------10-8-10-12-10-8
    G ----------------------------
    D ----------------------------  X2
    A ----------------------------
    E ----------------------------
    
    e -----------8-8-----------------
    B ---------------12-10-12-13-12-10
    G -------------------------------
    D ------------------------------- X2
    A -------------------------------
    E -------------------------------
    
    SOL                            MIm
    
  • AQUI LES MANDO EL BAJEO DE HISTORIA DE UN MINUTO PARA TODOS LOS ROCKEROS
    DEL PAIS. ES LA PRIMERA QUE MANDO ESPERO QUE ME HAYA QUEDADO BIEN Y QUE 
    LE ENTIENDAN.
    
    AQUI EMPIEZA EL BAJEO CUANDO EN LA CANCION DICE:
    *ELLA CONVIRTIO LA NOCHE EN UN.......*
    G|------------------------------|-----------------------------------| 
    D|------5--5---5---5-5-4-2------|----2---2---2-2--------------------|
    A|----------5-5-----------------|-----2-2-----2-3--3---3---3-3--5---|
    E|------------------------------|-------------------3-3-----3-------|
    
    
    G|------------------------------|
    D|------------------------------|   TODO ESTO SE REPITE
    A|--------5---5--5-5------------|   TRES VECES (X3)
    E|---------5-5----5-------------|
    
    DESPUES DE ESTO SE SIGUEN CON EL SIGUIENTE BAJEO (OJO CASI ES EL MISMO)
    CUANDO EN LA CANCION DICE:  *ESTOY HARTA DE TODO, DE TANTO.....*
    
    G|------------------------------|-----------------------------------|
    D|------5--5---5---5-5-4-2------|-----2---2---2-2--2-3-5--2-3-
  • Esta es la rola del metro, grabada en estudio con 
    una buena línea de bajo...
    
    intro con guitarra una vuelta....
    
    entra bateria y bajo...
    G|-----------------------------------------------|
    D|-----------------------------------------------|
    A|-------5--5------5---------2--2------2-0-------|
    E|--3--3------3--3----3-0--0------0--0-----------|
    
    
    G|-----------------------------------------------|
    D|-------5--5------5---------7--7------7--5------|
    A|--3--3------3--3----7--5--5------5--5----------|
    E|-----------------------------------------------|
    
    
      Ella convirtio la noche en un poema de amor
    G|-----------------------------------------------|
    D|-----------------------------------------------|
    A|-------5--5------5---------2--2------2-0-------|
    E|--3--3------3--3----3-0--0------0--0-----------|
    
      ella prometio mil días de alegría sólo a él
    G|-----------------------------------------------|
    D|-------5--5------5----------7--7------7/9-7-5--|
    A|--3--3------3--3-
  • +
    ¡Colabora con nosotros!
    Envíanos tu versión de esta canción
  • Tutorial
    HD
    Como Tocar "Historia De Un Minuto De Interpuesto" En Guitarra (HD)
    Tutorial-RayyGuitarist
    4:31

Letra de Historia de un minuto
Ella convirtio la noche en un poema de amor
ella prometio mil dias de alegria solo a el
luego el tiempo hablo, no todo fue tan bello no,no,no
ella se marcho dejandole una carta en el buro
"y la carta decia"
Estoy harta de todo de tanto rodar
no es culpa tuya es solo mi forma de ser, pero
esta noche no, no pienso ir a buscarla no,no,no
esta noche no, no quiero ni mirarla otra vez.
Se silba con los acordes
y se repite la cancion.
Gracias. Si tienen alguna sugerencia,modificacion o solo quieren hechar relajo o
intercambiar rolas escribanme.




[Historia de un minuto chords][Historia de un minuto cifra]
© LaCuerda.net · aviso legal · privacidad · es · en · pt · contacto