Acordes de Guitarra » I »Interpuesto » Una Rola De Amor (Tab)

Una Rola De Amor
Interpuesto

Letras, Acordes y Tabs para Guitarra, Bajo y Ukulele

  • A
    Una rola de amor
              C#m
    te voy a cantar
    Bm                             E
    Una rola de amor, que te haga llorar
    
    D               C#m
    Tu me iluminas mas que el sol
    D                         C#m  
    Tu pelo , tu boca los quiero besar
    D                       C#m
    Llevarte conmigo a la eternidad
    
    Bm        D       E
    SI  amor SI, amor SI
    
    A                         C#m
    Una rola de amor , te voy a cantar
    
    
  • e) --12--12/10--10/8----8/7--7---5-4-5---4  .... se tocan las dos
    b) --14--14/12--12/10--10/9--9---7-5-7---5  ....  cuerdas juntas
    
    
    
    e) --------------9-10-12-12----12-9-12/14-12-10-10-9-5-7-5... entra sax
    b) ------9-10-12------------------------------------------
    g) --8/9--------------------------------------------------
    d) -------------------------------------------------------
    
    
    A                       C#m
     Una rola de amor te voy a cantar
    Bm                          E
     una rola de amor que te haga llorar.
    
    D                C#m
     Tu me iluminas mas que el sol
    D                          C#m
     Tu pelo, tu boca los quiero besar
    
  • E]-12-12s10--:-10s9---9s7-7-
    B]-14-14s12--:-12s10-10s9-9-
    G]-----------:--------------
    D]-----------:--------------
    A]-----------:--------------
    E]-----------:--------------
    
    E]-10-9-10-9-:---------------
    B]-11-9-11-9-:----9-10-12-10-
    G]-----------:-8h9-----------
    D]-----------:---------------
    A]-----------:---------------
    E]-----------:---------------
    
    E]-------12-12-12---12-(14)(12)-
    B]-12s14---------14-------------
    G]------------------------------
    D]------------------------------
    A]------------------------------
    E]------------------------------
    
  • +
    ¡Colabora con nosotros!
    Envíanos tu versión de esta canción

Letra de Una Rola De Amor
Una rola de amor
te voy a cantar
Una rola de amor, que te haga llorar
Tu me iluminas mas que el sol
Tu pelo , tu boca los quiero besar
Llevarte conmigo a la eternidad
Una rola de amor , te voy a cantar
una rola de amor que te haga llorar
Durante el dia te voy a recordar
por las noches no te voy a olvidar
si de mi te alejas mi guitarra llorara
2da parte....
ese es mi ultimo rock an roll
esta triste tonada, por fin termino
dejame entrar en tus sueños, sin temor
si amor si, amor si
Una rola de amor, te voy a cantar
una rola de amor, que te haga llorar
Una rola de amor, te voy a cantar
una rola de amor, que te haga llorar
aqui sigue el silvido con los acordes de Unarola de amor etc..
mas claro no puede estar..
sale hermanos , cualquier cosa a mi mail..




[Una Rola De Amor chords][Una Rola De Amor cifra]
© LaCuerda.net · aviso legal · privacidad · es · en · pt · contacto