Acordes de Guitarra » I »Interpuesto » Quién te cantará? (Tab)

Quién te cantará?
Interpuesto

Letras, Acordes y Tabs para Guitarra, Bajo y Ukulele

  •      B:|--1--------1-1---3------1----|
         G:|---2------2---2-2------2-----|  2 Veces en forma de rasgueo
         D:|----2----2------------2------| 
         A:|-----0---------------0-------|
         E:|------0-------------0--------|
    
    
    [Lam]Ayer pense en decirte adiós [Sol]y me falto el valor,
    [Fa]es que había en tus ojos [Sib]tanto a[Mi]mor.
    [Lam]Que facíl es decir adiós, [Sol]que facíl olvidar,
    [Fa]que difícil será [Sib]para los [Mi]dos.
    
    [MIm.......]
    
    [Lam]Quíen te cantará con esta [Sol]guitarra,
    quíen la ha[Lam]rá sonar cuando no este [Sol]yo,
    quíen dará en tu [Do]casa co[Sol]lor y a tu le[Fa]cho ca[Mi]lor,
    quíen te hará el a[Lam]mor.
    
    [Lam]Quíen tachará mi dirección de [Sol]tu libreta azul, 
    
  • LAm
    ayer pensé en decirte adiós
      MIm
    y me faltó el valor
             LAm
    es que había en tus ojos
             MIm
    tanto amor
         LAm
    que fácil es decir adiós
         MIm
    que fácil olvidar
           LAm
    que difícil será
              MI
    para los dos.
    
                LAm
    quien te cantará
                MIm
    
  •      B:|--1--------1-1----------3----1--|
         G:|---2------2---2--------2----2---|
         D:|----2----2-----2------2----2----| (X2)
         A:|-----0---------------0----0-----|
         E:|------0-------------0----0------|
    
    LAm
    ayer pensé en decirte adiós
      SOL
    y me faltó el valor
             FA              SIb
    es que había en tus ojos
             MI
    tanto amor
         LAm
    que fácil es decir adiós
         SOL
    que fácil olvidar
           FA         SIb
    que difícil será
    
  • Esta es una adaptación del solo de sax, 
    pero con la lira, échale oido para que coincidan las
    notas con cada acorde del acompañamiento de la rola
    y pues se la dedico de todo corazón a Verónica L.O. de
    Puebla Pue. Te quiero con todo el corazón...
    
    dudas y comentarios a: arockdriguez@yahoo.com.mx
    
    x^y = Bending de 'x' hasta alcanzar la nota en 'y'
    h = hammer on
    p = pull off
    
    -------------------------------------------------------
    -12h13p12--12h13p12--12-15-12h13p12--12h13p12--12-15^17
    ---------14--------14--------------14--------14--------
    -------------------------------------------------------
    -------------------------------------------------------
    -------------------------------------------------------
    
    -------------------------------------------------------
    -12h13p12--12h13p12--12--12-15-15^17-15^17-15----------
    ---------14--------14--14------------------------------
    -------------------------------------------------------
    ----------------------------------
  •      e:|-0----------0------------0----0-|
         B:|--1--------1-1----------3----1--|
         G:|---2------2---2--------2----2---|
         D:|----2----2-----2------2----2----| (X2)
         A:|-----0---------------0----0-----|
         E:|------0-------------0----0------|
    
    Requinto:
         e:|5--7--8--7--8-8-8-8-7-8-8----5--7--8--10--7--7-7-7-5-7-7
         B:|--------------------------------------------------------
         G:|--------------------------------------------------------
         D:|--------------------------------------------------------
         A:|--------------------------------------------------------
         E:|--------------------------------------------------------
           (X2 LA FRASE DE ARRIBA)
    
    
         e:|5--8--12--11--12--5--12--10-----10-8-8--------8--7------
         B:|-----------------------------8----------8--6------------
         G:|--------------------------------------------------------
    
  • +
    ¡Colabora con nosotros!
    Envíanos tu versión de esta canción

Letra de Quién te cantará?
[Lam]Ayer pense en decirte adiós [Sol]y me falto el valor,
[Fa]es que había en tus ojos [Sib]tanto a[Mi]mor.
[Lam]Que facíl es decir adiós, [Sol]que facíl olvidar,
[Fa]que difícil será [Sib]para los [Mi]dos.
[Lam]Quíen te cantará con esta [Sol]guitarra,
quíen la ha[Lam]rá sonar cuando no este [Sol]yo,
quíen dará en tu [Do]casa co[Sol]lor y a tu le[Fa]cho ca[Mi]lor,
quíen te hará el a[Lam]mor.
[Lam]Quíen tachará mi dirección de [Sol]tu libreta azul,
[FA]archivando mi historia [Sib]en un caj[Mi]ón.
[Lam]Y tu que harás a donde irás, tal [Sol]vez me olvidarás,
Fa y pondrás mi guitarra [Sib]en un rinc[Mi]ón.
[Lam]Quíen te cantará con esta [Sol]guitarra,
quíen la ha[Lam]rá sonar cuando no este [Sol]yo,
quíen dará en tu [Do]casa co[Sol]lor y a tu le[Fa]cho ca[Mi]lor,
quíen te hará el a[Lam]mor.
[Lam]Quíen te cantará con esta [Sol]guitarra,
quíen la ha[Lam]rá sonar cuando no este [Sol]yo,
quíen dará en tu [Do]casa co[Sol]lor y a tu le[Fa]cho ca[Mi]lor,
quíen te hará el a[Lam]mor.
[Lam]Quíen te cantará con esta [Sol]guitarra,
quíen la ha[Lam]rá sonar (quien la hara sonar)cuando no este [Sol]yo,
quíen dará en tu [Do]casa co[Sol]lor y a tu le[Fa]cho ca[Mi]lor,
quíen te hará el a[Lam]mor.




[Quién te cantará? chords][Quién te cantará? cifra]
© LaCuerda.net · aviso legal · privacidad · es · en · pt · contacto