Tablatura para Bajo de Héroes del Silencio: la Carta
Conexión · Inscripción
Letras y Acordes
Pantalla Completa
Imprimir
Versión Texto
Añadir Favorito
Otras Versiones

Mostrar Diagramas
Desfile Automático
Formato del Texto


la Carta(BAJ)

Héroes del Silencio

calidad:
hero0344
AUTOR: Pedro Andreu, Enrique Bunbury, Joaquin Cardiel, Janet Valdivia
ALBUM: Senderos de Traicion (1990)
Enviado por carlos
hola soy kirk hardy esta es mi primer tab a ver k les parece

esta es la intro
los primeros 4 compases llevan solo la guitarra despues entra asi

G-----------------------------------------------------SE----
D------------------------------------------------------REPITE
A---------------------------3--3-3-3-3-3-7--7-7-7-7-7----UNA-
E-5--5-5-5-5-3-1--0-1-1-1-1-------------------------------VEZ-

ESTA ES LA PRIMERA PARTE
NO hace mucho que lei...

G-----------------------------------------------------------
D-----------------------------------------------------------
A----------------------------3--3----3-5--------------------
E-5--5-5-5-5-3-1--0-1--1-1-1-------5-----0--0--0--0-3-3-------

G------------------------------------------------------
D-------------------------------------------------------
A--------------------------3---3----3-5-----------------
E-5--5--5-5-3-1---1--1-1-1--------5-----0---0--3--3------

G------------------------------------------------------
D------------------------------------------------------
A---------------------------3---3----3-5----------------
E-5---5--5-5-3-1---1--1-1-1--------5-----0---0--0-3-3---

G-----------------------------------------------------SE
D----------------------------------------------------REPITE
A---------------------------3---3----3-5---------------UNA
E-5---5--5-5-3-1---1--1-1-1--------5-----0---0--3--3----VEZ

ESTA ES LA 2A PARTE
SIEMPRE HE ESCUCHADO...

G-----------------------------------------------------------
D-----------------------------------------------------------
A-8---8-8-8--8-7---7-7-7--7----------------------7---7------
E---------------------------5---5--5--5--5---5-5---8--------

G-----------------------------------------------------
D-----------------5-5-5-5-5-5-5-----------------------
A-8-8-8-8-8-8-8-8---------------5-7-7-7-7-7-7-7-7-----
E-----------------------------------------------------

G------------------------------------------------------
D------------------------------------------------------
A-8---8-8-8--8-7---7-7-7--7---------------------7---7--
E---------------------------5---5--5--5-5---5-5---8----

G---------------------------------------------------------------
D----------------5-5-5-5-5-5-5----------------------------------
A-8-8-8-8-8-8--8---------------5-7-7-7-7-7-7-7-7-5-7-7-7-7-7----
E------------------------------------------------------------8--

EN LA PARTE DE Y SE QUE SIEMPRE HE SIDO ASI...
SE REPITE LA 1A PARTE
Y EN EL CORO LA 2A PARTE
ESTA ES LA PARTE DE LAS LIRICAS FINALES

G---------------------------------------------------------SE REPITE
D---------------------------------------------------------UNA VEZ
A-----------------------------3---3-3-3-3-3-7--7-7-7-7-7--Y CONTINUA
E-5---5-5-5-5-3-1---0-1-1-1-1-----------------------------

G--------------------------------------------------------
D----------------------------------3--3-3----------------
A-----------------------------3--3---------7--7-5--3-----
E-5---5-5-5-5-3-1---0-1-1-1-1------------------------5-3-

G----------------------------------------------------
D----------------------------------------------------
A-------------------------------------8--7-----------
E-5---5-----3---3-----2---2-----1---8-------5--------
AHI ESTA COMPLETA PARA QUE LA SAQUEN EN SU GRUPO
UN SALUDO A MIS FANS VERO TE KIERO MUCHO
NOS VEMOS EN LA SIGUIENTE
Este fichero es trabajo propio de su transcriptor y representa su interpretación personal de la canción. El material contenido en esta página es
para exclusivo uso privado, por lo que se prohibe su reproducción o retransmisión, así como su uso para fines comerciales.

© LaCuerda.net · Aviso Legal · Privacidad