Acordes de Guitarra » H »Héroes del Silencio » Apuesta al Rock & Roll (Tab)

Apuesta al Rock & Roll
Héroes del Silencio

Letras, Acordes y Tabs para Guitarra, Bajo y Ukulele

  •    Em                   G   Em   G  Em   G  Em   G
    |-------------------|
    |-------------------|
    |--0----------------|
    |----4--2-----------|
    |-------------------|
    |-------------------|
    
    
    Em                     G
      ya no puedo darte el corazón
    Em                     G
      iré donde quieran mis botas
    D                                      Em
      y si quieres que te diga qué hay que hacer,
         G                           B
      te diré que apuestes por mi derrota
    
    
    Em                           G
    
  •        Em                   G   Em   G  Em   G  Em   G
    |----------------|
    |----------------|
    |----------------|
    |----------------|
    |----------------|
    |---3-2-0--------|
    
    
    Em                     G
      ya no puedo darte el corazón
    Em                     G
      iré donde quieran mis botas
    D                                      Em
      y si quieres que te diga qué hay que hacer,
         G                           B
      te diré que apuestes por mi derrota
    
    
    Em                           G
    
  • 4 Veces  »» (Em                   G   Em   G  Em   G  Em   G)
    
    |----------0--0---0--0---------3--3----3-------------0--0---0--0----|
    |----------0------0------------0-------0-------------0------0-------|
    |----------0------0------------0-------0-------------0------0-------|
    |----------2------2------------0-------0-------------2------2-------|
    |----------2------2------------2-------2-------------2------2-------|
    |-3--2--0-------0------0--2--3-3----3--3--0--3--2--0------0---------|
    
    |----------3--3--3--3--3-----2--2---2--2---2---0--0-----0--0--------|
    |----------0-----0-----0-----3------3------3---0--------0-----------|
    |----------0-----0-----0-----2------2------2---0--------0-----------|
    |----------0-----0--------0--------------0-----2--------2-----------|
    |----------2-----2----------------0------------2--------2-----------|
    |-0--2--3--3-----3---------------------------0-------0--------------|
    
    |----------3--3--3--3--------2--2--2--2------------0--0---0--0------|
    |----------0-----0-----------4-----4---------------0------0---------|
    |----------0-----0-----------4-----4---------------0------0---------|
    |----------0-----0-----------4-----4---------------2------2---------|
    
  • |-----------------------------------------------------------|
    |--------Formato e descripciones de abreviaturas------------|
    |-----------------------------------------------------------|
    Sec0 ← Esta es el numero de seccion
       → Aqui van las letras alineado con el tiempo ←
       → Aqui van los acores alineado con el tiempo ←
      0:00| 0:00| 0:00| 0:00| 0:00|  los segundos del tiempo
    E-----------------------------  ← Cuerda E
    B-----------------------------  ← Cuerda B
    G-----------------------------  ← Cuerda G
    D-----------------------------  ← Cuerda D
    A-----------------------------  ← Cuerda A
    E-----------------------------  ← Cuerda E
    
     =  ← Deten la posicion a la nota antes
    (0) ← Harmonica a la nota de adentro
     /  ← Desliza la nota antes al despues
     p  ← Martillar sobre la nota despues
     h  ← Mesquitar sobre la nota despues
     0^ ← Encorvar la cuerda deteniendo la nota antes
    
  • e----------------
    B----------------
    G----------------
    D---2p0-0--------
    A-------2--------
    E----------0-----
    
    
    Acordes:
    
    Em  -  G
    Em  -  G
    D   -  Em
    G   -  B7 
    
    
    Solo: 
    
    Guitarra 1
    |-------------------------------------------------------------
    
  •         e           G             e          G 
    G)---------------------------------------------------|
    D)---------------------------------------------------|
    A)-10-9-7--7--7-9-10---10---10---9-7---7--7-9-10---10| 
    E)--------7----------10---10-(10)----7----------10---|
    
             D        e         G            B  
    G)----------------------------------------------|
    D)-------------------------------------7-9---9--|
    A)--10--7-5--5-5-6-7--7-7-9-10---10--10-----9---|
    E)10-(10)---5--------7---------10---------------|
    
    
    ( )=note fantasma:aveces se toca aveces no.
    nota:las notas fantasmas se escuchan como adornos
    en la version que canta bunbury en el disco 
    'pequeño cavaret ambulante' en raresas no se escuchan estas.
    el bajo lo pueden transportar a donde quieran yo lo saque ahi 
    por que si lo hacia en los primeros trastes algunas notas quedaban 
    muy agudas ademas que lo hice con guitarra no con bajo.
    para alguna correcion o duda pueden hacerlo al correo
    
       theedge@correow
  • esta cancion tiene mas adornos en el bajo en este disco
    que la normal cantada por heroes.
    
    fig.1
    ------------------------|-----------------------------|
    ------------------------|-----------------------------|
    --10-9-7---7-7-9-10---10|---10----9-7---7-7-9-10----10|
    10-------7---------10---|10----10-----7----------10---|
    
    fig.2A         fig.2B         fig.2C      fig.2D 
    ------------|  ------------|  ----------| ------------ 
    ------------|  ------------|  ----------| -------------
    ---9-7-5---5|  ---------5-5|  --10-7-5-5| --------9-5-5
    10-------5--|  10-11-12--5-|  10------5-| 10-10-10---5-
    
    fig.3
    ---------|-------------|----------|
    ---------|-------------|---7-9---9|
    5-6-7---7|-7-9-10----10|10-----9--|
    ------7--|--------10---|----------|
    
    el erden de estas figuras es el sig.(de izquierda
    a derecha)
    
    1er. verso= fig.1+fig.2A+fig.3
    2do. verso= fig.1+fig.2B+fig.3
    coro= fig.1+fig.2C+fig.3
    3er. verso= fig.1+fig.2C+fig.3
    intermedio= fig.1+fig.2D+fig.3
                
  • +
    ¡Colabora con nosotros!
    Envíanos tu versión de esta canción

Letra de Apuesta al Rock & Roll
ya no puedo darte el corazón
iré donde quieran mis botas
y si quieres que te diga qué hay que hacer,
te diré que apuestes por mi derrota
quítate la ropa, así está bien
no dejes nada por hacer
si has venido a comprarme, lárgate
si vas a venir conmigo, agárrate
larguémonos, chica, hacia el mar
no hay amanecer en esta ciudad
y no sé si nací para correr
pero quizás sí que nací para apostar

sé que ya nada va ocurrir
pero ahora estoy contra las cuerdas
y no veo ni una forma de salir
pero voy a apostar fuerte mientras pueda

larguémonos, chica, hacia el mar
no hay amanecer en esta ciudad
y no sé si nací para correr
pero quizás sí que nací para apostar
ya no puedo darte el corazón (perdí mi apuesta por el rock & roll)
perdí mi apuesta por el rock & roll (perdí mi apuesta)
es la deuda que tengo que pagar
y ya no tiene sentido abandonar
ya no tiene sentido abandonar
oh, oh, oh, no late el corazón.




[Apuesta al Rock & Roll chords][Apuesta al Rock & Roll cifra]
© LaCuerda.net · aviso legal · privacidad · es · en · pt · contacto