Acordes de Guitarra » F »Fito & Fitipaldis » Mirando al cielo (Tab)

Mirando al cielo
Fito & Fitipaldis

Letras, Acordes y Tabs para Guitarra, Bajo y Ukulele

  •  E A D G B E                  E A D G B E                  E A D G B E
     | | | | | |                  | | | | | |                  | | | | | |
     | 1 1 1 1 1                  | 1 1 1 1 1                  | 1 1 1 1 1
     | | | | 2 |                  | | | | | |                  | | | | | |
     | | 3 4 | |                  | | 2 3 4 |                  | | 2 3 4 |
     | | | | | |                  | | | | | |                  | | | | | |
    
       1 2 3 4                    1     1                    1     1
           5                        2                              2
         6                            3                            3
    Se toca de 'A' hasta 'B'      Las cuerdas 2 y 5
    y volvemos dos cuerdas            se tocan a la vez
    atras.
    
    Todo esto se toca 4 veces, y luego pasamos a los acordes:
    
    C Em D Em      Que se tocan 2 veces
    
    C                   D                     Em            Em
       Puedo estar borracho pero no me he perdido,
    
  • Esta es la trascripción entera de la canción MIRANDO AL CIELO de fito&fitipaldis
    
    
    INTRO:
    
    
    E ----------------------------------------------------------------
    A -----------------7-------77-------77---------7------7-------
    D---------------------------------------------5----7---5--------
    G-----------------------------------------------------------------
                                                                                X 2
    E------------------------------------------------------------------
    A-----3---3-3---3------7---7-7---7-----5-5----------7---7-7--
    D------------------------------------------------5---7------------
    G------------------------------------------------------------------
    
    VERSO:
    
    Puedo estar borracho pero no me he perdido....
    
    E-------------------------------------------------------------------
    A--------3---3-3---3---------5---5-5---5---------7---7-7---5--------
    D-------------------------------------------------------------------
    G-----------
  • +
    ¡Colabora con nosotros!
    Envíanos tu versión de esta canción

Letra de Mirando al cielo
| | | | | | | | | | | | | | | | | |
| 1 1 1 1 1 | 1 1 1 1 1 | 1 1 1 1 1
| | | | 2 | | | | | | | | | | | | |
| | 3 4 | | | | 2 3 4 | | | 2 3 4 |
| | | | | | | | | | | | | | | | | |
1 2 3 4 1 1 1 1
5 2 2
6 3 3
Se toca de 'A' hasta 'B' Las cuerdas 2 y 5
y volvemos dos cuerdas se tocan a la vez
atras.
Todo esto se toca 4 veces, y luego pasamos a los acordes:
Puedo estar borracho pero no me he perdido,
lo que pasa es que me gusta pasear
pasito a pasito, buscando el equilibrio
y dejandome llevar.
primero a saltitos, luego en espiral.
No me mire asi, me esta clavando un cuchillo
¿o es que no sabe jugar?
Yo seguiré mirando al cielo, tu nunca quisiste volar,
y solo buscas alimento como un animal.
(se repite el estribillo y los acordes de la intro : C Em D Em)
Puedo ser pequeño pero tengo un castillo
si te lo imaginas ya puedes entrar.
A cantar de noche me enseñaron los grillos
y se alguna cosa mas. (esta última estrofa se repite,
con el mismo juego de acordes
de arriba entre paréntesis)
(volvemos otra vez al estribillo dos veces
y a los arpegios de principio, que tambien
se tocan 4 veces, y los acordes de la intro
Nada mas. Que os guste, y nos vemos en otra.
MORE: iniestola@jet.es
Podeis mandar vuestras sugerencias a made in spain!
Jordi Sabater <mades@kaos.es>




[Mirando al cielo chords][Mirando al cielo cifra]
© LaCuerda.net · aviso legal · privacidad · es · en · pt · contacto