Tablatura para Bajo de Fito & Fitipaldis: Mirando al cielo
Conexión · Inscripción
Letras y Acordes
Pantalla Completa
Imprimir
Versión Texto
Añadir Favorito
Otras Versiones

Mostrar Diagramas
Desfile Automático
Formato del Texto


Mirando al cielo(BAJ)

Fito & Fitipaldis

calidad:
f_fi0032
AUTOR: Fito & Fitipaldis  corregir
ALBUM: A puerta cerrada
Enviado por Carlos
Esta es la trascripción entera de la canción MIRANDO AL CIELO de fito&fitipaldis


INTRO:


E ----------------------------------------------------------------
A -----------------7-------77-------77---------7------7-------
D---------------------------------------------5----7---5--------
G-----------------------------------------------------------------
                                                                            X 2
E------------------------------------------------------------------
A-----3---3-3---3------7---7-7---7-----5-5----------7---7-7--
D------------------------------------------------5---7------------
G------------------------------------------------------------------

VERSO:

Puedo estar borracho pero no me he perdido....

E-------------------------------------------------------------------
A--------3---3-3---3---------5---5-5---5---------7---7-7---5--------
D-------------------------------------------------------------------
G-------------------------------------------------------------------

E-----------------------------------------------------------------
A--------3---3-3---3--------5---5-5---5----------7---7-7---7------
D-----------------------------------------------------------------
G-----------------------------------------------------------------

Pasito a pasito buscando el equilibrio...

E----------------------------------------------------------------------------------------------
A-----2---2-2---2---------3---3-3---3-------7---7-7------5---7-------------------7---5---------
D--------------------------------------------------------------------5---7-----7---5-----------
G----------------------------------------------------------------------------7-----------------

E-----------------------------------------------------------------------------------------------
A------5---5-5---5---5---5-5---5-----2---2-2---2----2---2-2---2-----------------4---2---3-------
D-------------------------------------------------------------------------------4---2-----------
G------------------------------------------------------------------------4---2------------------

Solo estoy jugando a que me invento un camino...

E------------------------------------------------------------------------------------------
A------3---3-3---3------5---5-5---5-----7---7-7---7------7---7-7---7-----5---3------------
D-----------------------------------------------------------------------------------------
G-----------------------------------------------------------------------------------------


ESTRIBILLO:

Yo seguiré mirando al cielo...

E----------------------------------------------------------------------------------
A-------3---3-3---3-----7---7-7---7--------3---3-3---3-------7---7-7---7-----------
D----------------------------------------------------------------------------------
G----------------------------------------------------------------------------------
                                                                                    X 2
E------------------------------------------------------------------------------
A---------------7---7------2---2-2---2---2---2---2---2---2---2-----------------
D---------3-s-7--7-------------------------------------------------------------
G------------------------------------------------------------------------------


FINAL:


E ----------------------------------------------------------------
A -----------------7-------77-------77---------7------7----------          X 2
D---------------------------------------------5----7---5---------
G-----------------------------------------------------------------
                                                                     
E------------------------------------------------------------------
A-----3---3-3---3------7---7-7---7-----5-5----------7---7-7--
D------------------------------------------------5---7------------
G------------------------------------------------------------------

E---------------------------------------------------------------------------
A------3---3-3---3-----7---7-7---7-----5-5---5-5---5-5---5-5---5-5----------
D---------------------------------------------------------------------------
G---------------------------------------------------------------------------

E---------------------------------------------------------------------
A---------------------------------------------------------------------
D---------------------------------------------------------------------
G---5---7-7---5---7-7---5---7-7---5---7-7---5---7-7-------------------

E--------------------------------------------------------------------
A--------------------------------------------------------------------
D-------------------------------------------------------------------
G---17---19-19---17---19-19---17---19-19---17---19-19----

Bueno, pues esta es la canción, para cualquier duda o sugerencia mandarme un mail 
a cmv85@hotmail.com

Para poder tocar la canción , primero tenéis que escucharla mucho antes, para saber 
cuando van los cambios... ¡ que disfrutéis!	

		                      :-)     Carlos Martín     :-)
Este fichero es trabajo propio de su transcriptor y representa su interpretación personal de la canción. El material contenido en esta página es
para exclusivo uso privado, por lo que se prohibe su reproducción o retransmisión, así como su uso para fines comerciales.

© LaCuerda.net · Aviso Legal · Privacidad