Acordes de Guitarra » F »Fito & Fitipaldis » Me acordé de tí (Tab)

Me acordé de tí
Fito & Fitipaldis

  • Letra y Acordes
                    Bm
    e |----------------------------------------------//
    B |----------------3--------------------3--------//
    G |----------4-2-4--------4-x-----4-2-4--------4-//
    D |----------4---4----2h4---x-----4---4----2h4---//
    A |-----0--2----------------x---2----------------//
    E |--0h2-----------------------------------------//
    
    
    
    
                     G
    Puede que sea esta la canción
                        Bm     (riff intro en todos los Bm)
    La que nunca te escribí
                  G
    Tal vez te alegre el corazón
    
    No hay mas motivo ni razón
                    Bm
    
  • Letra y Acordes
    Intro: Bm
    
    
                 G
    Puede que sea esta la canción
                         Bm
    La que nunca te escribí
                G
    Tal vez te alegre el corazón
    
    No hay mas motivo ni razón
                      Bm
    Que me acorde de ti.-
    
    
          D                    A                 Bm
    He buscado en lo que fuimos,    lo q será de ti
           G                                      Bm
    Yo me fui no se hacia donde Solo se que me perdí
           G                                     Bm
    
  • Letra y Acordes
    Intro: Bm
                    G                                   Bm
    Puede que sea esta la canción, La que nunca te escribí
                  G
    Tal vez te alegre el corazón, No hay mas motivo ni razón
                    Bm
    Que me acorde de ti
    
           D                    A                Bm
    Y  buscado en lo que fuimos,   un que será de ti
    
            G                                      Bm
    Yo me fui no se hacia donde, Solo se que me perdí
            G                                    Bm
    Yo me fui no se hacia donde, y yo solo me perdí
    
            A                  G                    Bm
    Hay un niño q se esconde,     siempre detrás de mi
    
    Solo:  D  A  Bm  (x2)
    
  • Tablatura
                    Bm
    e |----------------------------------------------//
    B |----------------3--------------------3--------//
    G |----------4-2-4--------4-x-----4-2-4--------4-//
    D |----------4---4----2h4---x-----4---4----2h4---//
    A |-----0--2----------------x---2----------------//
    E |--0h2-----------------------------------------//
    
    Guitarra 2
    e |----------------------------------------------//
    B |----------------------------------------------//
    G |-------------------------------2/4--4---------//
    D |---------------0h2--2p0--------2/4------------//
    A |-----0--2----------------2--------------------//
    E |--0h2-----------------------------------------//
    
    
                     G
    Puede que sea esta la canción
                        Bm     (riff intro en todos los Bm)
    
  • +
    ¡Colabora con nosotros!
    Envíanos tu versión de esta canción

Letra de Me acordé de tí
Puede que sea esta la canción
Bm (riff intro en todos los Bm)
La que nunca te escribí
Tal vez te alegre el corazón
No hay mas motivo ni razón
Que me acorde de ti
Y buscado en lo que fuimos, un que será de ti
Yo me fui no se hacia donde
Yo me fui no se hacia donde, y yo solo me perdí
Hay un niño q se esconde, siempre detrás de mi
Todo cambia y sigue igual
Y aunque siempre es deferente
Siempre el mismo mar
Todo cambia y sigue igual
Y la vida te dará los besos que tu puedes dar
Todo y nada hay q explicar,
Quien conoce de este cuento
Más de la mitad
Soy mentira y soy verdad
Mi reflejo vive preso dentro de un cristal
Todas las cosas que soñé
Todas las noches sin dormir
Todos los besos que enseñé
Y cada frase q escondí
y yo jamás te olvidare
Tu acuérdate también de mi
Nunca se para de crecer
Nunca se deja de morir



© LaCuerda.net · aviso legal · privacidad · contacto