Acordes de Guitarra » F »Fito & Fitipaldis » Catorce vidas son dos gatos (Tab)

Catorce vidas son dos gatos
Fito & Fitipaldis

Letras, Acordes y Tabs para Guitarra, Bajo y Ukulele

  •       Dm         F
    Ahhahhahh, ahhahhahh
          Dm   C     F
    Ahhahhahh, ahhh, ahhh       [x2]
    
    
    C            A#          F
    Cuanto se gritó diciendo nada
    C          A#            F
    no pudimos ver con tanta luz
    C             A#            F
    yo buscaba el cielo en tu mirada
    C         A#                     F
    y nunca sabré lo que encontraste tu.
    
    
    C              A#           F
    Que te traigan flores las mañanas
    C            A#            F
    que no pases noches sin dormir
    
  • e----------------------------------------------------------------------------
    B----------------------------------------------------------------------------
    G---------10--12/14-----12/14--12--10--12/14--12--12p10--12p10--12/14--12-10-
    D-10-12----------------------------------------------------------------------
    A----------------------------------------------------------------------------
    E----------------------------------------------------------------------------
    
    e----------------------------------------|
    B----------------------------------------|
    G---------10-10----------10-12-12/14-----|
    D--10/12----------10/12------------------|
    A----------------------------------------|
    E----------------------------------------|
    
    
    
    e------------------------------------------------------------------------
    B-----------------------------12-----------------------------------------
    G--------10-10------12/14---------14/12---10-------12/14---12---10/12-10-
    D-10/12---------12-----------------------------12------------------------
    
  • +
    ¡Colabora con nosotros!
    Envíanos tu versión de esta canción

Letra de Catorce vidas son dos gatos
Ahhahhahh, ahhahhahh
Ahhahhahh, ahhh, ahhh [x2]
Cuanto se gritó diciendo nada
no pudimos ver con tanta luz
yo buscaba el cielo en tu mirada
y nunca sabré lo que encontraste tu.
Que te traigan flores las mañanas
que no pases noches sin dormir
que el sueño se pose en tus pestañas
que uno de esos sueños que me sueñe a mí.
Detrás del viento un huracán
que se fue formando en la cabeza
cuando te cansas de sufrir
siempre me debes.
Mi corazón es de cristal
no guarda nada que no veas
de nuestra hoguera.
Ahhahhahh, ahhahhahh
Ahhahhahh, ahhh, ahhh
Mi canción que nace del fracaso
es solo una piel sobre la piel
algo que se besa y sabe amargo
es mi boca seca, nada que beber.
Ohh pobre corazón que no sabe que decir
si te vas por lo que soy o por lo que nunca fui.
Hay caminos que hay que andar descalzo
ya no te preocupes mas por mi
siempre me entra arena en los zapatos
esta vez me quedo aquí.
Si te cabe el cielo en un abrazo
siempre habrá una estrella para ti
si catorce vidas son dos gatos
aun queda mucho por vivir.
Ohh pobre corazón que no sabe que decir
si te vas por lo que soy o por lo que nunca fui.
Y hay caminos que hay que andar descalzo
ya no te preocupes mas por mi
siempre me entra arena en los zapatos
esta vez me quedo aquí.
Si te cabe el cielo en un abrazo
siempre habrá una estrella para ti
si catorce vidas son dos gatos
aun queda mucho por vivir.
Ahhahhahh, ahhahhahh
Ahhahhahh, ahhh, ahhhh




[Catorce vidas son dos gatos chords][Catorce vidas son dos gatos cifra]
© LaCuerda.net · aviso legal · privacidad · es · en · pt · contacto