Tablatura para Guitarra de Fito & Fitipaldis: Catorce vidas son dos gatos
Conexión · Inscripción
Letras y Acordes
Pantalla Completa
Imprimir
Versión Texto
Añadir Favorito
Otras Versiones

Mostrar Diagramas
Desfile Automático
Manipular Acordes
Formato del Texto


Catorce vidas son dos gatos(TAB)

Fito & Fitipaldis

calidad:
f_fi0462
AUTOR: Fito & Fitipaldis  corregir
ALBUM: Antes de que Cuente diez (2009)
Enviado por JAIME
e----------------------------------------------------------------------------
B----------------------------------------------------------------------------
G---------10--12/14-----12/14--12--10--12/14--12--12p10--12p10--12/14--12-10-
D-10-12----------------------------------------------------------------------
A----------------------------------------------------------------------------
E----------------------------------------------------------------------------

e----------------------------------------|
B----------------------------------------|
G---------10-10----------10-12-12/14-----|
D--10/12----------10/12------------------|
A----------------------------------------|
E----------------------------------------|



e------------------------------------------------------------------------
B-----------------------------12-----------------------------------------
G--------10-10------12/14---------14/12---10-------12/14---12---10/12-10-
D-10/12---------12-----------------------------12------------------------
A------------------------------------------------------------------------
E------------------------------------------------------------------------

e--------------------------------------------------------------------|
B--------------------------------------------------------------------|
G--10/12-10--10/12--10-10------------10-10----------10-12---12/14----|
D---------------------------10/12------------10/12-------------------|
A--------------------------------------------------------------------|
E--------------------------------------------------------------------|

Esta es la parte del solo de saxofon pero aqui se los dejo en guitarra
¡disfrútenlo! :v

#HailGrasa

/= slide
p= pull off

JAIME LUIS AYALA CUDRIZ
Este fichero es trabajo propio de su transcriptor y representa su interpretación personal de la canción. El material contenido en esta página es
para exclusivo uso privado, por lo que se prohibe su reproducción o retransmisión, así como su uso para fines comerciales.

© LaCuerda.net · Aviso Legal · Privacidad