Acordes de Guitarra » F »Fernando Delgadillo » Soñando el Camino (Tab)

Soñando el Camino
Fernando Delgadillo

Letras, Acordes y Tabs para Guitarra, Bajo y Ukulele

  • |-------------------------------------------------------------------------------------------|
    |------1-----1-----1-----1--------------1-----1-----1-----1-------------1-----1-----1-----1-|
    |----3-----2-----0-----2------3---3---3-----2-----0-----2-----3---3---3-----2-----0-----0---|
    |--3-----3-----3-----3------3---3---3-----3-----3-----3-----3---3---3-----3-----3-----3-----|
    |-------------------------------------------------------------------------------------------|
    |-------------------------------------------------------------------------------------------|
    
              RIFF 1----------------------------------------------------------|
              C              Em           Am                                  C        Em
    |------------------------1------------1---------(3)----------------------------0---0--------|
    |--------------3-----3------3------3-----------0^1^0---0------1-----1-------3----3---3----3-|
    |---0---0----0---0-0-------------0----------2--------2------2-----0-----0---------------0---|
    |-2---0------------------------2----------2---------------3-----2-----0---------------------|
    |---------3---------------------------0-----------------------------------3-----------------|
    |------------------------0---------------------------------------------------------0--------|
    
      Am                F      G      C
    |-0-------(3)---------------------------0--|
    |--------0^1^0---0------1------0----1------|
    |-----2--------2------2------0--------0----|
    
  • Dedicado a ese amor que el tiempo y la distancia (sobre todo la
    distancia ahora mas que nunca)ocultan
    1/Marzo/2005
    
    Introducción:
    
    
    1e-----------------------------------------------------------------
    2B-----1-----1-----1-----1-------------1-----1-----1-----1---------
    3G---3-----2-----0-----2-----3---3---3-----2-----0-----2-----3---3-
    4D-3-----3-----3-----3-----3—--3---3-----3-----3-----3-----3—--3---
    5A-----------------------------------------------------------------
    6E-----------------------------------------------------------------
    
    
    
    1e---------------------------------
    2B-----1-----1-----1-----1---------
    3G---3-----2-----0-----0-----0---0-
    4D-3-----3-----3-----3-----2---0---
    5A---------------------------------
    6E---------------------------------
    
    
    
    1e---------------0---------0---0-----------------------------------
    2B-----3-----3-------3-------3-------1---1p0-----1-----1-----1-----
    3G---0---0-0-------------0---------2---2-----2-------2-----0-----0-
    4D-
  • +
    ¡Colabora con nosotros!
    Envíanos tu versión de esta canción

Letra de Soñando el Camino
Hace días que el camino va tirando más lejos FILL 1
Hace días te contaba que me alejo y respiro
flores de otros jardines, polvos de otros caminos
que me observan lugares y gente que jamás
se acordó de los tantos que nos siguen detrás
Hace tardes enteras que se asoma la noche FILL 2
Hace días que tropiezo y me aferro a la marcha
bajo el rayo del sol y el fresco de la escarcha
sé que hay cosas que quedan y cosas que pasan
y entre cosas que pienso pienso en volver....... a casa
Hace ya tantos días que la luna lejana
se ha colocado en el cielo desde horas más tempranas
y su luz de satélite antiguo y distante
me ilumina en las noches de camino menguante
De hace tiempo no puedo calmarme estas ancias
que me dejó un amor que ocultan las distancias
pero nada me dice que sigue delante
si el lugar que busqué o el fin del caminante
que de tanto andar se perdió en el paisaje
RIFF 1
y de lejos se ve...continuando su viaje
La canción compañera, mi guitarra y bastón
sueños que se perdieron clamando perdón
que antes de irse olvidando se atan a mí si no
y me mueron a lo lejos estos días de camino
Hace más de cien veces cien que no te miro
que lo único que alivia el dolor son suspiros
que he olvidado los rostros de aquellos que quiero
y no alcanza el dolor no todo el desespero
y me inundan los ojos gruesos goterones
y se van a volar las imaginaciones
de vuelta al pasado más siempre me alcanzan
soñando el camino...para volver a casa
para volver a casa, para volver a casa
RIFF 1 (este último riff cambia al final y termina en C)
Está completa, sólo en algunos lugares pueden no quedar los acordes con la letra, ah, y también algunos "FILL 1" se cambian por:
^= hamer on
ACORDES:




[Soñando el Camino chords][Soñando el Camino cifra]
© LaCuerda.net · aviso legal · privacidad · es · en · pt · contacto