Acordes de Guitarra » E »Extremoduro » V Centenario (Tab)

V Centenario
Extremoduro

  • Letra y Acordes
    FA# G# G# B G# F# G# G# G# (x2)
    
    FA# G# G# B G# F# G# G# G#
    Le ví, andaba sonriendo por ahí
    SI5   DO#                          DO#
             no le hace falta nada para ser
    FA# G# G# B G# F# G# G# G#
    feliz, metido como siempre en su rincón
    SI5    DO#                           DO#
              no le hace falta, nadie para ver
    FA# G# G# B G# F# G# G# G#
    su dios, en ídolos de piedra o de cartón
    SI5    DO#                          DO#
           no le hace falta nadie para ser él.
    
    Puente: MI MI SOL SOL LA LA        LA SOL LA SOL
    
    MI              SOL
    Centenario, celebrad
    LA
    
  • Tablatura
    Guenas esta sería mi primera Transcripción pa guitarra.
    Espero que os guste.
    Kejas e insultos a volucion2@hotmail.com
    Viva extremo y robe y to esas cosas...
    
    
    
    
    -Intro... y verso.
    E|------------------------------------|
    b|------------------------------------|
    G|------------------------------------|
    D|--4---6-6---9/6------4---6-6---6----|
    A|--4---6-6---9/6------4---6-6---6----|
    E|--2---4-4---7/4------2---4-4---4----|
    
    -Rift1
    E|---------|
    b|---------|
    G|--4---6*-|
    D|--4---6*-|
    A|--2---4*-|
    E|---------|
    
    -Rift2 (estas notas cuando suena la batería,otra 
     guitarra las mantiene(como en el rift3))
    E|----------------------|
    b|----------------------|
    G|----------------------|
    D|--2-2----5-5----7-7---|
    A|--2-2----5-5----7-7---|
    E|--0-0----3-3----5-5---|
    
    -Acompañamiento de bajo para el Rift2
    G|-----------------------------------|
    D|-----------------------------------|
    A|-----------------------2-0---2--0--|
    E|--0-0----3-3----5-5----------------|
    
    -Rift3
  • +
    ¡Colabora con nosotros!
    Envíanos tu versión de esta canción

Letra de V Centenario
Le ví, andaba sonriendo por ahí
no le hace falta nada para ser
feliz, metido como siempre en su rincón
no le hace falta, nadie para ver
su dios, en ídolos de piedra o de cartón
no le hace falta nadie para ser él.
Centenario, celebrad
las mujeres y los niños por igual
celebrando masacrar
las mujeres y los niños por igual
Comí de un ácido y me puse a imaginar
debía en una india perseguir
su amor y ahora ya puedo verles junto a mí
que al cabo de algún tiempo la encontró
nació un indio pequeñito y vacilón
que sigue preguntando ¿Qué pasó?
Centenario, celebrad
las mujeres y los niños por igual
celebrando masacrar
las mujeres y los niños por igual
El resto tambien es iwal en la parte de letra
estad pendientes de la guiarra porke los cambios de
acorde van rapidillos pero con un poco de practica se saka
Salud!!!
Inmoral_Mith



© LaCuerda.net · aviso legal · privacidad · contacto