Acordes de Guitarra » E »Extremoduro » Sol de Invierno (Tab)

Sol de Invierno
Extremoduro

Letras, Acordes y Tabs para Guitarra, Bajo y Ukulele

  • A                    B
     Me juego el tipo mirandote a los ojos
    
    C                    D
     salgo korriendo pa meterme en remojo
    
    A                   B
     me as alterado poniendote a mi lado
    
    C                    D
     yo k vivia tan feliz en un tejadoooo!!!!
    
    3ºWeno, ahora toka repetir kintas todo el rato en el mismo orden de siempre ABCD.
     asta k para y ace:
    
    4ºEsta parte son dos guitarras (o eso kreo) 
    
    Guitarra 1:Palm mute en A
    Guitarra 2:A.....B.....C.....D.....
    
    
  • E|--------3-2-----------|--------------|-----------------------------|
    B|---s5----------3------|--------------|------------3---5---3--------|
    G|------------------4---|----2--4--5---|---4--5----------------------|
    D|----------------------|--------------|-----------------------------|
    A|----------------------|--------------|-----------------------------|
    E|----------------------|--------------|-----------------------------|
    
    
    
    E|--------3-2-----------|--------------|-------------|---------------|
    B|---s5----------3------|--------------|-------------|----------3----|
    G|------------------4---|----2--4--5---|---4--2--2---|--4---5--------|
    D|----------------------|--------------|-------------|---------------|
    A|----------------------|--------------|-------------|---------------|
    E|----------------------|--------------|-------------|---------------|
    
    
    Base    A5          B5          C5          D5
    E|-------------------------------------------------------------------|
    B|-------------------------------------------------------------------|
    
  • Tablatura para bajo versión Directo Las Ventas
    
    |---------------2-2-2----------------2-2-2----------------2-2-2---------------2-0------------|
    |---------------------------------------------------------------------------------2-0--------|
    |-0-0-0--0-0-0---------0-0-0--0-0-0---------0-0-0--0-0-0---------0-0-0--0-0-0---------3-0-3--|
    |--------------------------------------------------------------------------------------------|
    
    |--------2--2-2-2-0------------2--2-2-2-0------------2--2-2-2-0-----------2--2-2-2-0---------|
    |------2------------2--------2------------2--------2------------2-------2------------2-------|
    |-0--0------------------0--0------------------0--0-----------------0--0----------------------|
    |--------------------------------------------------------------------------------------------|
    
    |-2-0----2-0----2-2-2----------------2-2-2----------------2-2-2---------------2-0------------|
    |-----2------2-------------------------------------------------------------------
  • +
    ¡Colabora con nosotros!
    Envíanos tu versión de esta canción

Letra de Sol de Invierno
Me juego el tipo mirandote a los ojos
salgo korriendo pa meterme en remojo
me as alterado poniendote a mi lado
yo k vivia tan feliz en un tejadoooo!!!!
3ºWeno, ahora toka repetir kintas todo el rato en el mismo orden de siempre ABCD.
asta k para y ace:
4ºEsta parte son dos guitarras (o eso kreo)
Guitarra 1:Palm mute en A
Guitarra 2:A.....B.....C.....D.....
Esto se ace dos veces asta k llega el pekeño punteillo k x cierto es mu facil de tokar
lo dificil es acerlo komo el 'uoho'.
5ºPunteillo: eskutxad la kancion pa llevar bien el tiempo.

Weno,el resto de la kancion es basikamente igual menos un solo o punteillo
k no tengo ni zorra de komo es. De toas formas kreo k es mejor k el k estaba antes,
sin kerer menos preciar klaro está.
Para critikas:Vicio1313@hotmail.com




[Sol de Invierno chords][Sol de Invierno cifra]
© LaCuerda.net · aviso legal · privacidad · es · en · pt · contacto