Acordes de Guitarra » E »Extremoduro » Romperás (Tab)

Romperás
Extremoduro

Letras, Acordes y Tabs para Guitarra, Bajo y Ukulele

  • B:--------------|--------------|------------------------------||
    G:----------7---|-----------9--|------------7---9---7---7-9-7-||
    D:7-9-9-9-9-----|-7-9-9-9-9----|--7-9-9-9-9---9-------9-------||
    A:--------------|--------------|------------------------------||
    E:--------------|--------------|------------------------------||
    
    
    E:----------------------|---------------------|                 |
    B:----------------------|---------------------|                 |
    G:---------7-6-7-6------|---------------------|  Guit 1         |
    D:---9-9-9---------9-7--|-----9-7--------7----|                 |
    A:----------------------|--10-----10-9-7---9--|                 |
    E:----------------------|---------------------|                 |
     :                                            |                 |
     :                                            |                 |Parte I
    E:----------------------|---------------------|                 |
    B:---7-7-7-10-8-10-8-7--|---7-----------------|                 |
    G:--------------------9-|-7---9-7-6---9-6-----|  Guit 2         |
    D:----------------------|-----------9---------|                 |
    A:----------------------|---------------------|                 |
    
  • E:-------------------------------------------------------|
    B:-------------------------------------------------------|
    G:-----------7-6-4---------7-6-4-------------------------|
    D:-----9-9-9-------7-9-9-9-------7-5-9-7-5-----7---------|
    A:-----------------------------------------9-7---9-------|
    E:-------------------------------------------------------|1Guitx3
    
    E:-------------------------------------------------------|
    B:-----------7-5-3-----7-5-3-----------------------------|
    G:-----7-7-7-------6-7-------6-4-7-6-4-----4-2-----------|
    D:-------------------------------------7-5---------------|
    A:-------------------------------------------------------|
    E:-------------------------------------------------------|2Guitx2
    
      F# B   A G         F# E
    Romperás, con tu voz, mil silencios
    
    A
    que habitan en cada rincón.
    
    
  • Intro E -------------
          B -------------
          G ------6-7----
          D -9-9-9---9-7- (X2)
          A -------------
          E -------------
    
    
    
          --------------
          --------------
          -------------- (GUITARRA 1)
          ---9-7-------7
          -10---10-9-7--9
          ---------------
    
    
    
          ---------------------------------------------
          -------7-5------------7-5--------------------    (GUITARRA 2)
    
  • +
    ¡Colabora con nosotros!
    Envíanos tu versión de esta canción

Letra de Romperás
: | |
: | |Parte I

Romperás Con tu voz mil silencios que habitan ...
Tu cintura que hermosura todo el dia me paso en ella
... Dónde está dónde está
x2
Parte I
x4 Parte I




[Romperás chords][Romperás cifra]
© LaCuerda.net · aviso legal · privacidad · es · en · pt · contacto