Acordes de Guitarra » E »Extremoduro » Quemando tus recuerdos (Tab)

Quemando tus recuerdos
Extremoduro

Letras, Acordes y Tabs para Guitarra, Bajo y Ukulele

  • e |--------------------------------------------
    B |-------2-x-x-2-x-x-2-x-x-2-x-x-2-x-x-2--3---
    G |-------2-x-x-2-x-x-2-x-x-2-x-x-2-x-x-2--4---
    D |--2&4---------------------------------------
    A |--------------------------------------------
    E |--------------------------------------------
    
    
    e |--------------------------------------------
    B |-------2-x-x-2-x-x-2-x-x-2-x-x-3s5--5-3-2---
    G |-------2-x-x-2-x-x-2-x-x-2-x-x-4s7--7-4-2-1-
    D |--2&4-------------------------------------2-
    A |------------------------------------------2-
    E |--------------------------------------------
    
      A     C#m  Bm  E
       Vivir       A LA deriva,
      A     C#m  Bm  E
       sentir      que todo marcha bien,
       volar       siempre hacia arriba
    
  •    B |-------2--2--2--2--2--2--3--------2--2--2--2s5--5--5--3--2--0--|
       G |-------2--2--2--2--2--2--4--------2--2--2--2s6--6--6--4--2--1--| 
       D |--2&4------------------------2&4----------------------------2--|  BIS
       A |---------------------------------------------------------------|
       E |---------------------------------------------------------------|
    
    
      A     Bm7
       Vivir   A LA deriva, 
      A      E7                A
       sentir  que todo marcha bien, 
            Bm7
       volar   siempre hacia arriba 
      A        E7                A
       y pensar  que no puedo perder.
    
    
      A        C#m       D            E
       Voy a hacer un tambor de mis escrotos   |
      A       C#m   D           E              | BIS
    
  • bajo
    
    G||------|------|------|------|------|------|----------------------|
    D||------|------|------|------|------|------|----------------------|
    A||------|------|------|------|------|------|----------------------|
    E||------|------|------|------|------|------|--5----5----5----5----|
    
    
    
    ---------------------|----------------------|----------------------|
    ---------------------|----------------------|----------------------|
    ---------------------|----------------------|--4----0----4----0----|
    --4--------0----2----|--5----0----5----0----|----------------------|
    
    
    
    ------------------------|--------------------|----------------------|
    ------------------------|--------------------|----------------------|
    --2--2----0--2--0--2----|----------2----4----|----------------------|
    ------------------------|--------------------|--5----0----5----0----|
    
    
    
    ----------------------|----------------------|-------------------|
    ----------------------|--7----7----0----7----|--6----------------|
    --4----0----4----0-
  • +
    ¡Colabora con nosotros!
    Envíanos tu versión de esta canción
  • Tutorial
    Cómo tocar 'Quemando Tus Recuerdos' de Extremoduro (Lección / Tutorial para principiantes)
    20:01

Letra de Quemando tus recuerdos
sentir que todo marcha bien,
volar siempre hacia arriba
y pensar que no puedo perder.
Voy a hacer un tambor de mis escrotos |
sólo dejó, dejó sólo una foto. |
Y vivir, qué cuesta arriba
y sentir que no sé qué hago aquí
y andar siempre arrastrado
y perder, que no puedo pensar.
Voy a hacer un tambor de mis escrotos |
sólo dejó, dejó sólo una foto. |
Y cada vez que la miro me pongo malo,
cada vez que la miro me salen granos,
cada vez que la miro me pongo tieso,
cada vez que la miro me pega el palo,
cada vez que la miro me se encoge el alma,
cada vez que te miro te como el higo,
cada vez que la miro me como el tarro,
cada vez que la miro me tiro al barro.
Me acuerdo de sus caricias
y la memoria me engaña,
me se come la desidia
y me cuelgan las arañas.
Voy a empaparme en gasolina una vez más,
voy a rasparme a ver si prendo
y recorrer de punta a punta la ciudad
quemando nuestros malos sueños.
Me acuerdo de sus caricias
y la memoria me engaña,
me se come la desidia
y me cuelgan las arañas.
Voy a empaparme en gasolina una vez más,
voy a rasparme a ver si prendo
y recorrer de punta a punta la ciudad
quemando nuestros malos sueños.
Voy a empaparme en gasolina una vez más,
voy a rasparme a ver si prendo
y recorrer de punta a punta la ciudad
quemando todos tus recuerdos.
No, vestida de colores, se fue ¿dónde está?
No, vestida de colores, quizás, no existió jamás.
No, vestida de colores, se fue ¿dónde está?
No, vestida de colores, quizás, amanecerá.
No, vestida de colores. Vestida de colores.Vestida de color
Vivo en un vertedero, me acuesto con la luna,
qué importa ser poeta o ser basura.
Qué importa que me engañesy luego me sonrías
si sólo eras la yegua que yo más quería.
No necesito verte pa saber que estás conmigo
y relincho de alegría siempre que te miro.




[Quemando tus recuerdos chords][Quemando tus recuerdos cifra]
© LaCuerda.net · aviso legal · privacidad · es · en · pt · contacto
DINAMICO