Acordes de Guitarra » E »Extremoduro » Golfa (Tab)

Golfa
Extremoduro

Letras, Acordes y Tabs para Guitarra, Bajo y Ukulele

  •  DO          DO         SOL          RE         DO
    e|-----------|-----------|-----------|----------|----------|
    B|---5--5----|---5---5---|--3--1--0--|----------|----------|
    G|-----------|-----------|-----------|-2--0-----|----------|   (x3)
    D|-----------|-----------|-----------|-------4--|--5-2-----|
    A|-----------|-----------|-----------|----------|----------|
    E|-----------|-----------|-----------|----------|----------|
    
     DO          SOL         RE          DO        
    e|-----------|-----------|-----------|----------|
    B|-----------|-----------|-----------|----------|
    G|-----0--2--|---4---4---|---2-------|----------|   (x2)
    D|--2--------|-----------|-------4---|--5---2---|
    A|-----------|-----------|-----------|----------|
    E|-----------|-----------|-----------|----------|
    
    ARPEGIO 1ª ESTROFA:
    
     DO          DO         SOL          RE         
    e|-----------|-----------|-----------|----------|
    
  • DO         SOL          RE         DO
    |-----------|-----------|----------|----------|
    |-5---5-5-5-|-----------|----------|----------|
    |-----------|7---5---454|----------|----------|
    |-----------|-----------|7---5--4--|5---------|
    |-----------|-----------|----------|--7-------|
    |-----------|-----------|----------|----------|
    
    DO         SOL          RE         DO
    |-----------|-----------|----------|----------|
    |-----5-5-5-|-----------|----------|----------|
    |-----------|7---5---454|----------|----------|
    |-----------|-----------|7---5--4--|5---------|
    |-----------|-----------|----------|----------|
    |-----------|-----------|----------|----------|
    
    DO         SOL          RE         DO
    |-----------|-----------|----------|----------|
    |-----5-5-5-|-----------|----------|----------|
    |-----------|7---5---454|----------|----------|
    
  • E|----------------------------------------------------------------
    B|-5-5-5-------------------------5-5-5----------------------------
    G|--------7-5-4h5p4---------------------7-5-4h5p4-----------------
    D|------------------7-5-4-5------------------------7-5-4----------
    A|---------------------------7------------------------------------
    E|----------------------------------------------------------------
    
    
    E|----------------------------------------------------------------
    B|-5-5-5----------------------------------------------------------
    G|--------7-5-4h5p4-----------------------------------------------
    D|------------------7-5-4-5---------------------------------------
    A|---------------------------7------------------------------------
    E|----------------------------------------------------------------
    
    
    
      Guitar 2
    E|----------------------------------------------estapartees-------
    B|-------------------------------------------laguitarrdefondo-----
    
  • +
    ¡Colabora con nosotros!
    Envíanos tu versión de esta canción
  • Tutorial
    Cómo tocar 'Golfa' de Extremoduro (Tutorial de guitarra para principiantes/Intermedio)
    32:41
  • Tutorial
    Extremoduro Cover Golfa (Zona Radical del Este)
    3:43
  • Tutorial
    Como Hacer Golfa De Extremoduro
    21:22

Letra de Golfa
ARPEGIO 1ª ESTROFA:
ACORDES:
Tan tan
Llaman a la puerta otra vez, ya va, ¿quién es?
Fue abrir
y se metió en mi casa: un amanecer
¡ahí va! ¡que bien!
Sola...
soñar que estaba sola y pensé:
¡joder! ¡que bien!
Nada
me para cuando empiezo a crecer
¡ahí voy, coger!
¿Y por qué no sale sola?
porque no le da la gana, [BIS]
dice que si no se droga,
dice que no siente nada
Si hace sol, se tira de la cama
y por el ascensor, las nubes se levantan
y ahí voy yo, a romper las telarañas de tu corazón,
verás como se escampa, ¡golfa!
Su piel...
¡que me corro si me roza su piel!
¿Fumas?
pero solo no me sienta muy bien
¡toma, alíñale!
Jurad
jurad que estaba triste y diré:
fué ayer, ¡joder que bien!
Nada
me para cuando empiezo a crecer
¡ahí voy, coger!
Seguir la trayectoria que llevan las nubes y volver por la mañana
igual que sale el sol, verás que calentito retorcer las horas dando
patadas al reloj.
Tú ...y yo estoy medio loco también y sin otra cosa que hacer,
como un montón de palabras cogiditas de un papel.
NOTAS:




[Golfa chords][Golfa cifra]
© LaCuerda.net · aviso legal · privacidad · es · en · pt · contacto