Acordes de Guitarra » E »Extremoduro » Buscando una Luna (Tab)

Buscando una Luna
Extremoduro

Letras, Acordes y Tabs para Guitarra, Bajo y Ukulele

  •    B |------3--------5--------5-----5---|
       G |---4-----4--6-----6--4-----4--6---|
       D |---5-----5--7-----7--5--------7---|
       A |---------------------0------------| 
       E |----------------------------------|
    
    
       e |------------------------------------------|
       B |--10--8--7--------------------------------|
       G |------------7--9-----7-----7s6--4--6&4s2--|
       D |------------------9-----9-----------------|
       A |------------------------------------------| 
       E |------------------------------------------|
    
    
       G*                 A
       Salgo a pasear por dentro de mí,    
              G*                 
       veo paisajes que de un libro   (G*=G con bajo en A, entonces: X05433)        
            A
    
  • pequeña correción
    
       e |-----------------7------------------------------7--10--7------------
       B |--10--7--10--10-----------7--------------7--10------------10--------
       G |--------------------7--9-----------7--9-----------------------9--7--
       D |-----------------------------7--9-----------------------------------
       A |--------------------------------------------------------------------
       E |--------------------------------------------------------------------
    
          -------------------------------------------------------|
          ----------------------------------7--8--7-----7--------|
          --7--7--6-----------7----------7----------9-----9--7---|
          -----------7--9--7----9--7--9--------------------------|
          -------------------------------------------------------|
          -------------------------------------------------------|
  • +
    ¡Colabora con nosotros!
    Envíanos tu versión de esta canción

Letra de Buscando una Luna
Salgo a pasear por dentro de mí,
veo paisajes que de un libro (G*=G con bajo en A, entonces: X05433)
de memoria me aprendí:
Llanuras bélicas y páramos de asceta
- no fue por estos campos el bíblico jardín -;


son tierras para el águila, un trozo de planeta
por donde cruza errante la sombra de Caín"
x
Bajé las escaleras, sí, de dos en dos,
perdí al bajar el norte y la respiración;
Y ¿por las noches que harás?
- las paso descosiendo, aquí hay un arco por tensar -.
¡Que yo me acuerdo entodavía cuando te besaba!
¡La cago, vuelvo a tiritar!
¡Si tú no te juraras siempre que yo te faltaba!
¡A veces todo es tan normal!
Bajé las escaleras, sí, de dos en dos,
perdí al bajar el norte y la respiración;
Y ¿por las noches que harás?
- las paso descosiendo, aquí hay un arco por tensar -.
Y hago colas sin parar
en la puerta de algún bar
yo tó borracho consumo las horas,
mientras encuentro alguna luna que ande sola.
¡Que yo me acuerdo entodavía cuando te besaba!
¡La cago, vuelvo a tiritar!
¡Si tú no te juraras siempre que yo te faltaba!
¡a veces todo es tan normal!
¡Que yo me acuerdo entodavía cuando te besaba!
¡La cago, vuelvo a tiritar!
¡Que no, que ha sido un momentito sólo de bajada!
¡Que aquí no pasa nada!

Y hago colas sin parar
en la puerta de algún bar
yo tó borracho consumo las horas,
mientras encuentro alguna luna que ande sola.
¡Que yo me acuerdo entodavía cuando te besaba!
¡La cago, vuelvo a tiritar!
¡Si tú no te juraras siempre que yo te faltaba!
¡a veces todo es tan normal!
¡Que yo me acuerdo entodavía cuando te besaba!
¡La cago, vuelvo a tiritar!
¡Que no, que ha sido un momentito sólo de bajada!
¡Que aquí no pasa nada!
NANANA NANANANA NANANANA NA. (2 BIS)
Pues eso es todo, si os portáis bien y me da el venazo la próxima
será BriBriBliBli (En El Más Sucio Rincón De Mi Negro Corazón). Un saludo
para los amantes de Extremo.
Alex J.R. <axlrose@mx3.redestb.es>




[Buscando una Luna chords][Buscando una Luna cifra]
© LaCuerda.net · aviso legal · privacidad · es · en · pt · contacto