Acordes de Guitarra » E »Enrique Bunbury » Nana de los peces muertos (Tab)

Nana de los peces muertos
Enrique Bunbury

  • Tablatura
    C                        F
    
    e|--------------|       e|--------------|
    B|-------1------|       B|-------1------|
    G|-----0---0----|       G|-----2---2----|
    D|---2-------2--|       D|---3-------3--|
    A|-3------------|       A|--------------|
    E|--------------|       E|-1------------|
    
    
    Fm                      G
    
    e|---------------|      e|--------------|
    B|-------1-------|      B|-------0------|
    G|-----1---1-----|      G|-----0---0----|
    D|---3-------3---|      D|---0-------0--|
    A|---------------|      A|--------------|
    E|-1-------------|      E|-3------------|
    
    
    
  • +
    ¡Colabora con nosotros!
    Envíanos tu versión de esta canción

Letra de Nana de los peces muertos
C x3 - F - Fm - C - G - C
*Verso:
Mirad los peces, en el río
parecen dormidos
no me escuchan cuando les digo
despertad, ha salido ya el sol.
*Verso:
Estan flotando, y se los lleva
la corriente hasta el mar
donde les esperan sus parientes
panza arriba, se olvidaron de nadar.
*En el siguente verso solo toca los acordes.
*Verso:
Mirad los peces, en el río
parecen dormidos
no me escuchan cuando les digo
despertad, ha salido ya el sol.
*En el solo se tocan tambien los acordes
junto con el Solo
X2
*Verso: -con arpegio-
Estan flotando, y se los lleva
la corriente hasta el mar
donde les esperan sus parientes
panza arriba, se olvidaron de nadar.
*El último C es:
*Fin
Eso es todo gente espero le entiendan
y cantenle con sentimiento. Cuidense y pratiquen =D
-Que la chica triste los haga reir-



© LaCuerda.net · aviso legal · privacidad · contacto
DINAMICO