Acordes de Guitarra » E »Enrique Bunbury » El Jinete (Tab)

El Jinete
Enrique Bunbury

Letras, Acordes y Tabs para Guitarra, Bajo y Ukulele

  • intro: Em
    
    Em
    Por la lejana montanas
                     Am
    Va cavalgando un jinete
                        Em
    Vaga solito en el mundo
         B7           Em
    Y va deseando la muerte
    
    
    Em
    lleva en el pecho una herida
                         Am
    Va con su alma destrozada
                       Em
    Quisiera perder la vida
        B7          Em
    Y reunirse con su amada
    
  • PUES UNA VEZ MAS ESTOY CON USTEDES Y CON ESTA CANCION
    JOSE ALFREDO JIMÉNEZ...
    ESPERO QUE LES GUSTE
    
    PUES ESTO QUE LES DEJO ES EL SOLO DE ESTA CANCION.
    
     E||---------------------------||
     A||---------------------------||
     D||-4/5-5-4-04-5-(4)-5-4-0----||
     G||-----------------------4-4-||
     B||---------------------------||
     E||---------------------------||
    
     E||------------------||
     A||------------------||
     D||------------------||
     G||-4----------------||
     B||--5-4-5/7-8-7-4-5-||
     E||------------------||
    
     E||----------------------------||
     A||----------------------------||
     D||-4/5-5-4-0-4-5-(4)-5-4-0----||
     G||------------------------4-4-||
     B||----------------------------||
     E||----------------------------||
    
     E||--------------------||
     A||--------------------||
     D||--------------------||
     G||-4------------------||
     B||--5-4-5/4-5-4-8-7-5-||
     E||-------------5------||
    
    
    
    PUES ESTO ES TODO POR AHORA ESPERO QUE LES GUSTE POR QUE LO SAQUE POR UNA
    PERSONA QUE LE ENCANTA ESTA CANCION Y NAD
  • Em
    Por la lejana montaña
                      Am
    Va cabalgando un jinete
                      Em
    Vaga solito en el mundo
          B7          Em
    Y va deseando la muerte.
    
    Em
    Lleva en su pecho una herida
                       Am
    Va con su alma destrozada
                        Em
    Quisiera perder la vida
          B7               Em - E7
    Y reuni-i-irse con su amada.
    
    Am                     Em
    La quería más que a su vida
    
  • |----19-------|----7-----|----------|
    |-------19-20-|------7-8-|----0-----|
    |-------------|----------|--------0-|
    |-------------|----------|------4---|
    |-------------|----------|----------|
    |-0-----------|-0--------|-0--------|
    
    
    Em
    Por la lejana montaña
                     Am
    Va cabalgando un jinete
                     Em
    Vaga solito en el mundo
         B7          Em
    Y va deseando la muerte
    
    Em
    Lleva en su pecho una herida
                        Am
    
  • +
    ¡Colabora con nosotros!
    Envíanos tu versión de esta canción

Letra de El Jinete
Por la lejana montanas
Va cavalgando un jinete
Vaga solito en el mundo
Y va deseando la muerte
lleva en el pecho una herida
Va con su alma destrozada
Quisiera perder la vida
Y reunirse con su amada
La queria mas que a su vida
Y la perdio para siempre
Por eso lleva una herida
Por esoo...
busca la muerte
buscaaa la mueerte...
Con su guitarra cantando
Se pasa las noches en vela
Hombre y guitarra llorando
a la luz de las estrellas
Luego se pierde en la noche
Y aunque la noche es muy bella
El va pidiendole a dios que se lo...
lleve con ella.......
La queria mas que a su vida
Y la perdio para siempre
Por eso lleva una herida
Por esoo...
busca la muerte
buscaaa la mueerte...
Luego se pierde en la noche
Y aunque la noche es muy bella
El va pidiendole a dios que se lo...
lleve con ella...




[El Jinete chords][El Jinete cifra]
© LaCuerda.net · aviso legal · privacidad · es · en · pt · contacto