Acordes de Guitarra » E »Elefante » Ladrón de Corazones (Tab)

Ladrón de Corazones
Elefante

Letras, Acordes y Tabs para Guitarra, Bajo y Ukulele

  •        C#m                     B/E              A                    F#                 E
    
    e---4------------    e---2----------         e ---0-----         e---2---------    e---0-------
    b-------5-------     b---2----------         b ------2--         b---2---------    b---0-------
    g-----------6---     g--------4-----         g ------2--         g------3------    g---1-------
    d-----------6---     d--------4-----         d------2--          d---------4---    d-------2---
    a---4------------    a---2----------         a---0-----          a---------4---    a-------2---
    E---4------------    E---2---------          E---0-----           E---2---------    E---0-------
    
    C#m        B/E
    C#m        F#
    
               C#m              F#
    No buscaba mi destino
               C#m              F#
    nunca ohi a mi corazon
              C#m           F#
    prisionero del olvido
                    A                     B/E
    me escondi de ti  me aparte de vos
    
  • C#m    A     B      F#
    C#m    A     F#
    
    
    e|---------------------|
    B|---------------------|
    G|---------------------|
    D|---------------------|
    A|---4--2--------------|
    E|---------4--2--0--2--|
    
    e|--------------------------------------------------------------|
    B|--------------------------------------------------------------|
    G|--------------------------------------------------------------|
    D|--------------------------------------------------------------|
    A|-4~----7--4~-----7--7/9~---9--7-6-7--4~-----7--4~-----7--7/9~-|
    E|-----4---------4-----------------------4---------4------------|
    
    
    
    
  •                       C#m
    e---------------------------    
    b---------------------------    
    g---------------------------     
    d---------------------------     
    a--4--2--0-----------4------ 
    E------------4--2--0--------    
    
               B/E
    e--------------------------    
    b--------------------------     
    g--------------------------     
    d--------------------------     
    a----2--7--4---------------    
    E--------------------------    
    
            C#m
    e---------------------------    
    b---------------------------     
    g---------------------------     
    
  • Aqui va esta gran cancion, de verdad me gusta mucho mucho...
    Aqui pongo el tab para bajo completisimo, tienes la mayoria
    de los arreglos que hace el bajista en la cancion.
    Me puse en la tarea de sacarlo con todos los detalles,
    espero les guste...
    
    QUE VIVA EL ROCK, QUE VIVA BOGOTA, QUE VIVA COLOMBIA!!!
    
    
    Notas:
    C#m - A - B - F# - E
    
    
    Intro
    
    G|----------------|
    D|----------------|
    A|----------------|
    E|---4--2--0--2---|
    
    G|--------------------------|---------------------|
    D|--------------------------|---------------------|
    A|--4-44--------2-22--------|--4-44---------------|
    E|--------5-55--------2-22--|--------5-55--2~-----|
    
    
    Versos
    
      No buscaba mi destino...
    G|----------------------------------------------|
    D|---6-4---4-6---6-4--------6-4---4-------------|
    A|-4~----------4~-----2-3-4~-------4-2-0~---2~--|
    E|----------------------------------------------|
    
      tropecé con el infierno...
    G|------------------------------------------------|
    D|---6-4---------6-4---6-6---6-4----------------
  • +
    ¡Colabora con nosotros!
    Envíanos tu versión de esta canción

Letra de Ladrón de Corazones
No buscaba mi destino
nunca ohi a mi corazon
prisionero del olvido
me escondi de ti me aparte de vos
tropece con el infierno
trancite por el dolor
me atrevi a lo imposible
y encontre tu amor que me desarmo
y nadie nos vio
desnudandonos la vida
sin miedo sin ley.
Lo prohibido sabe a gloria
no existe jucio ni existe perdon
no me culpes por amarte
mejor encierrame en tu prision.
Como te atreves a llamarme, ladron
Si tus ojos me han robado,
el corazon
ladron de corazones
como te atreves a decirme ladron
ladron de corazones.
Me tomaste por asalto
me despojaste del dolor
este amor es un milagro
vivire por ti morire por ti
no buscaste en mi pasado
y el futuro no existio
la passion nos dio la mano
dulce bendicion que nos condeno
y nadie nos vio
desnudandonos la vida
sin miedo sin ley.
Lo prohibido sabe a gloria
no existe jucio ni existe perdon
no me culpes por amarte
mejor encierrame en tu prision
Como te atreves a llamarme, ladrooooooon yeh
Lo prohibido sabe a gloria
no existe jucio ni existe perdon
no me culpes por amarte
mejor encierrame en tu prision.
Como te atreves a llamarme, ladron
Si tus ojos me han robado,
el corazon
ladron de corazones
como te atreves a decirme ladron
ladron de corazones.
como te atreves a decirme ladron
ladron de corazones
como te atreves a decirme ladron
ladron de corazones
ouo no no.
Bueno, hay les dejo esta rola que esta ben perrona.
Y como siempre comentarios aclaraciones reclamaciones
felicitaciones y correcciones soy bien recibidas
a Dagama2000d@hotmail.com




[Ladrón de Corazones chords][Ladrón de Corazones cifra]
© LaCuerda.net · aviso legal · privacidad · es · en · pt · contacto
DINAMICO