Tablatura para Bajo de Elefante: Ladrón de Corazones
Conexión · Inscripción
Letras y Acordes
Pantalla Completa
Imprimir
Versión Texto
Añadir Favorito
Otras Versiones

Mostrar Diagramas
Desfile Automático
Formato del Texto


Ladrón de Corazones(BAJ)

Elefante

calidad:
elft0314
AUTOR: Jorge Avendaño, Reyli
ALBUM: Lo Que Andabamos Buscando (Bonus Track)
Enviado por Cesar
Aqui va esta gran cancion, de verdad me gusta mucho mucho...
Aqui pongo el tab para bajo completisimo, tienes la mayoria
de los arreglos que hace el bajista en la cancion.
Me puse en la tarea de sacarlo con todos los detalles,
espero les guste...

QUE VIVA EL ROCK, QUE VIVA BOGOTA, QUE VIVA COLOMBIA!!!


Notas:
C#m - A - B - F# - E


Intro

G|----------------|
D|----------------|
A|----------------|
E|---4--2--0--2---|

G|--------------------------|---------------------|
D|--------------------------|---------------------|
A|--4-44--------2-22--------|--4-44---------------|
E|--------5-55--------2-22--|--------5-55--2~-----|


Versos

  No buscaba mi destino...
G|----------------------------------------------|
D|---6-4---4-6---6-4--------6-4---4-------------|
A|-4~----------4~-----2-3-4~-------4-2-0~---2~--|
E|----------------------------------------------|

  tropecé con el infierno...
G|------------------------------------------------|
D|---6-4---------6-4---6-6---6-4------------------|
A|-4~------2-3-4~----------4~-----4-2-0-00--2-22--|
E|------------------------------------------------|


Pre-coro

  y nadie nos vió...
G|-------------------------------------|
D|-------------------------------------|
A|-0~--0--2~--2--4~--4---------0~--2~--|
E|----------------------2~--2----------|


Coro

  Lo prohibido sabe a gloria...
G|---------------------------|
D|---------------------------| x2
A|-4-44--------7-77----------|
E|-------5-55--------7-77----|

  Como te atreves a llamarme,   ladrón...
G|------------------------9--------|
D|-------------------7~-----7-6~---|
A|-7-4-44---------0----------------|
E|---------2-22--------------------|

  Ladrón de corazones...
G|---------------------------------------------------4//---|
D|----------------------------------------6-4----2h4-------|
A|-44-4-------------44-4-------------44-4------4---------0~|
E|------4-2~--0-20-------4-2~--0-20------------------------|



Versos

  Me tomaste por asalto...
G|-------------------------------------------------------|
D|------6-4---------6-4------------6-4--4/64------------|
A|-///4~------2-3-4~-------------4~-----------0-00--2-22-|
E|-----------------------0h2-0h2-------------------------|

  no buscaste en mi pasado...
G|---------------------------------------------------------|
D|---654------------------------------654--44--------------|
A|-4~------0-2-444~--4------2h4-2h4-4~--------2-0-00-2-22--|
E|---------------------4-2---------------------------------|


Pre-coro

  y nadie nos vió...
G|-------------------------------------------------|
D|-------------------------------------------------|
A|-0~-00--2~-22--4~-44---------0~-00--2~-22-222222-|
E|----------------------2~-22----------------------|


Coro

  Lo prohibido sabe a gloria...
G|---------------------------|
D|---------------------------| x2
A|-4-44--------7-77----------|
E|-------5-55--------7-77----|

  Como te atreves a llamarme...
G|-----------------------------|
D|-----------------------------|
A|-7-4-44--------0-000000000---|
E|---------2-22----------------|
                                ladróooooooon... uh no...


Solo

G|---------------------------------|
D|---------------------------------|
A|-44-244----------77-777----------|
E|---------55-555----------44-444--|

G|----------------------------------|
D|----------------------------------|
A|-44-444---------------------------|
E|---------55-555--00-000--44-444---|

G|---------------------------------|
D|---------------------------------|
A|-44-444----------77-777----------|
E|---------55-555----------44-444--|

G|--------------------------------------|
D|-------------------------66666-4------|
A|-44-444----------7-77777---------6-2--|
E|---------55-555-----------------------|


Coro Final

  Lo prohibido sabe a gloria...
G|--------------------------------|
D|--------------------------------|
A|-4-44--------7-77---------------|
E|-------5-55--------77-4h7-4h7---|

  no me culpes por amarte...
G|--------------------------------|
D|--------------------------------|
A|-44-444---------77-777----------|
E|---------55-555---------77-777--|

  Como te atreves a llamarme,   ladrón...
G|--------------------9-------|
D|------------------7---7-6---|
A|-7-4-44--------0------------|
E|---------2-22---------------|

  ladrón de corazones...
G|--------------------------------------|
D|---6-4----6-4--6----------------------|
A|-4~-----4~-------4~-4-----2-4~-4------|
E|---------------------4-2~-------4-2~--|


  como te atreves a decirme ladrón...
G|---------------------------------------| _
D|---------------------------------------|  |
A|-244-24-------------244-24-------------|  >x2
E|--------4-2~--0-20---------4-2~--0-20--| _|

  ohhuhoh no no.
G|----------|
D|----------|
A|--0-2-4~--| Final
E|----------|



Dudas o correcciones:
mrcesarayala7@hotmail.com
Este fichero es trabajo propio de su transcriptor y representa su interpretación personal de la canción. El material contenido en esta página es
para exclusivo uso privado, por lo que se prohibe su reproducción o retransmisión, así como su uso para fines comerciales.

© LaCuerda.net · Aviso Legal · Privacidad