Acordes de Guitarra » E »Elefante » El abandonado (Tab)

El abandonado
Elefante

Letras, Acordes y Tabs para Guitarra, Bajo y Ukulele

  •   Am                         Dm
    Anoche pude ver cuando te fuiste
      G                        Am
    solito me quede y no dije nada
            Am                     Dm
    tal vez esta canción te suene triste
          G                      Am
    pero me esta llevando la chingada.
    
    
    
    Y lo que me digas
          Dm
    de memoria me lo se
            G                      Am
    tus mentiras no me servirán de nada.
    
    
    
    Te lo perdiste
    
  • Gm                        Cm
    Anoche pude ver cuando te fuiste
      F                       Gm
    solito me quedé y no dije nada
                                  Cm
    tal vez esta canción te suene triste
      F                          Gm
    pero me está llevando la chingada
    
    
         Gm                Cm
    Y lo que me digas de memoria me lo sé
           F                       Gm
    tus mentiras no me servirán de nada
                       Cm
    te lo perdiste, ojalá te vaya bien
          F
    yo me voy por donde vine
           Eb
    se que no me perderé, no, no
    
  •                            Cm
    Anoche pude ver cuando te fuiste
    1. ----------------------------------|
    2. ----------------------------4-----|
    3. ------------------------------5---|
    4. --------------------------------5-|
    5. ----------------------------------|
    6. ----------------------------------|
       F                       Gm
    solito me quedé y no dije nada,
    1. --------------------------------|
    2. --------------------------3-----|
    3. ----------------------------3---|
    4. ------------------------------5-|
    5. --------------------------------|
    6. --------------------------------|
                                   Cm
    tal vez esta canción te suene triste
    1. -----------------------------------|
    2. -----------------------------4-----|
    
  • El abandonado es una rola de igual forma que ASi es la vida
    asi que esta facil
    veamos
    
    x = se repite x numero de veces hasta el cambio de Tono
    
    
    
    Intro, VERSO,
        Gm          Cm	    F
                 x            x            x
    G------------|-----------|-------------|--
    D------------|------5----|-------------|--
    A-------5----|---3----6--|-------------|--
    E----3----6--|-----------|---1----5-3--|--
    B------------|-----------|-------------|--
    
    
    Para entrar al coro, es igual, solo lleva un arreglito
    
        Gm          Cm	    F
                 x            x            x
    G------------|-----------|-------------|-----------------
    D------------|------5----|-------------|-----------------
    A-------5----|---3----6--|-------------|----5-3----------
    E----3----6--|-----------|---1----5-3--|--3-----6-5-3----
    B------------|-----------|-------------|-----------------
    
    
    y CORO
    
        Gm          Cm	    F            Bb        Eb      D7
                                          x2
    G---
  • Escuchar con cuidado para darle el ritmo.
    
    Intro
       X4          x6
    G----------|----------|------------------------------|
    D----------|----------|--------5---------------------|
    A----5-5---|-5-3h5----|--5-3h5-----------------------|
    E--3-----3-|-------3--|------------------------------|
    
    Verso
    
    Anoche pude ver cuando te fuiste…
      Cm          F           Gm         Gm
    G-----------|-----------|-------------------------------|
    D-----------|--3-1-3-1--|-------------------------------|
    A-3-1-3-----|---3---3---|--1-3-5-3-1---1----------------|
    E--3----3-2-|-----------|-3---------3-1-3-1-3-----------|
    
      Cm          F           Gm         Gm                               x2
    G-----------|-----------|------------------------------|
    D-----------|--3-1-3-1--|------------5-3-5--3----------|
    A-3-1-3-----|---3---3---|--1-3-5-3-1--5----5-----------|
    E--3----3-2-|-----------|-3----------------------------|
    
      Cm          F           D#
    G-----------|------------|-----------|
    D-----------|--3-1-3-----|-
  • +
    ¡Colabora con nosotros!
    Envíanos tu versión de esta canción

Letra de El abandonado
Anoche pude ver cuando te fuiste
solito me quede y no dije nada
tal vez esta canción te suene triste
pero me esta llevando la chingada.
Y lo que me digas
de memoria me lo se
tus mentiras no me servirán de nada.
Te lo perdiste
ojala te vaya bien
yo me voy por donde vine
se que no me perderé no, no.
//*Abandonado, un exiliado
de tu boca, de tus manos de, tu corazón
sin rumbo fijo voy de la mano
de mis sueños vagabundos
y me importa poco que me diga el mundo,
el abandonado.
El tiempo es el doctor de los dolidos
para sanar las penas que te embriagan
yo siempre me las curo con tequila
oyendo a Josè Alfredo y al Sabina.
Y no pasa nada
se que no me moriré
como dice la canción
así es la vida.
Mírame a los ojos
aunque sea la ultima vez
no te vine a detener, no, no.
//*Abandonado, un exiliado
de tu boca, de tus manos de, tu corazón
sin rumbo fijo voy de la mano
de mis sueños vagabundos
y me importa poco que me diga el mundo,
el abandonado.
Hey, “así estoy yo sin ti”
“fallaste corazón”, “y ya lo pasado, pasado”
“te doy una canción”
”de que manera te olvido”
“esta tarde vi llover”
“bésame, bésame mucho”
“tóquenme la que se fue”.
//*Abandonado, un exiliado
de tu boca, de tus manos de, tu corazón
sin rumbo fijo voy de la mano
de mis sueños vagabundos
y me importa poco que me diga el mundo,
el abandonado.




[El abandonado chords][El abandonado cifra]
© LaCuerda.net · aviso legal · privacidad · es · en · pt · contacto