Acordes de Guitarra » E »Elefante » Amores Prohibidos (Tab)

Amores Prohibidos
Elefante

Letras, Acordes y Tabs para Guitarra, Bajo y Ukulele

  • e---3-----3-----2-----2----0------0-----3--
    B-----3-----3-----3-----3----1------1------
    G-------2-----------2----------2-----------    X 2
    D------------------------------------------
    A------------------------------------------
    E------------------------------------------
    
    
    C                        D   
      Corazones rotos en las avenidas
    G                 C 
      mariposas de color
    Am                          D
      fantasias en cualquier esquina
                    Em   Emaj7(en traste 12)
      y yo sin su amor.
    C                            D
      Hay mujeres por las que se da la vida
    G               C
      y un poquito mas
    
  • E|------------------------------------------------------------------------------
    A|------------------------------------------------------------------------------
    D|----2--------2--------2--------2--------2--------2--------0--------0----------
    g|----------0--------0--------0--------0--------0--------0--------2--------0----
    b|-------3--------3--------3--------3--------3--------3--------3--------3-------
    e|----3--------3--------2--------2--------0--------0--------2--------2----------
    
    
                                                                 D   C
    E|-------------------------------------------------------------------------3----
    A|-----------------------------------------------------------------------3------
    D|----2--------2--------2--------2--------2--------2---------|---------2--------
    g|----------0--------0--------0--------0--------0------------|-------0----------
    b|-------3--------3--------3--------3--------3--------3------|-----1------------
    e|----3--------3--------2--------2--------0--------0-----0---V---0--------------
    
    
                          D         G              C        Am
    Corazones rotos en la avenidas,   mariposas de color,
                            D                     Em    (Scal 1)
    
  • E|--------------------------------------------------------------------------
    A|--------------------------------------------------------------------------
    D|--2--------2--------2--------2--------2--------2--------0--------0--------
    g|--------0--------0--------0--------0--------0--------0--------2--------0--
    b|-----3--------3--------3--------3--------3--------3--------3--------3-----
    e|--3--------3--------2--------2--------0--------0--------2--------2--------
    
    
                                                               D   C
    E|-----------------------------------------------------------------------3--
    A|---------------------------------------------------------------------3----
    D|--2--------2--------2--------2--------2--------2---------|---------2------
    g|--------0--------0--------0--------0--------0------------|-------0--------
    b|-----3--------3--------3--------3--------3--------3------|-----1----------
    e|--3--------3--------2--------2--------0--------0-----0---V---0------------
    
    
                          D         G              C        Am
    Corazones rotos en la avenidas,   mariposas de color,
                            D                     Em    (Scal 1)
    
  • e---3-----3-----2-----2----0------0-----2------2-------
    B-----3-----3-----3-----3----3------3-----3-------3----
    G-------0-----------0----------0------------0-----------
    D-------------------------------------------------------
    A-------------------------------------------------------
    E-------------------------------------------------------
    Riff 2
    e---3-----3-----2-----2----0------0----0--2---
    B-----3-----3-----3-----3----3------3-----3---
    G-------0-----------0----------0----------2---
    D---------------------------------------------
    A---------------------------------------------
    E---------------------------------------------
    
    C                        D
      Corazones rotos en las avenidas,
    G               C
      mariposas de color,
    Am                           D
      fantasías en cualquier esquina,
    
  • e|-3------3--------2------2---------0-------0--------2------2---------
    b|---3------3--------3------3---------3-------3--------3------3-------
    g|-----0------(0)------0------(0)-------0-------(0)------0------0-----
    D|-2------2--------2------2---------2-------2--------2------2---------
    A|--------------------------------------------------------------------
    E|--------------------------------------------------------------------
    
    D|-------5-2----
    A|-2-2/5--------
    E|--------------
    
    e|-3------3--------2------2---------0-------0--------2---
    b|---3------3--------3------3---------3-------3------3---
    g|-----0------(0)------0------(0)-------0-------(0)--0---
    D|-2------2--------2------2---------2-------2--------2---
    A|-------------------------------------------------------
    E|-------------------------------------------------------
    
    C                      D        G              C
    Corazones rotos en las avenidas   mariposas de color
    
  • ESTA CANCION ME GUSTA Y QUIERO COMPARTIRLA
    CON USTEDES, ESPERO Y LES GUSTE, SALUDOS A
    TODA LA RAZA DE CHIHUAHUA.
    
    
    EMPIEZA AL MISMO TIEMPO QUE EL INTRO
    Y EL BAJO SE ESCUCHA DE FONDO
    
    INTRO SOLO GUITARRA Y BAJO AL FONDO
    G|---12-12--11-11--9-9--7---|
    D|--------------------------|   
    A|--------------------------|
    E|--------------------------|
    
    INTRO CON TODOS LOS INSTRUMENTOS
    G|---0---|-4-4---|-4-4---|-------|
    D|--0-2--|----5-2|------5|-5-5-0-|  
    A|-3-----|-------|----3--|----3--|
    E|-------|-------|-------|-------|
    
    AKI EMPIEZA 
          corazones rotos en ...............
         C     D      G       C       A    D
    G|------|------|------|--------|-----|----|
    D|------|-0-0--|------|--------|-----|-0-0|
    A|--3-3-|------|------|-3-2-3-2|-0-0-|----|
    E|------|------|-3-3--|--------|-----|----|
    
    asi va despues de:
    y yo sin su amor
    
    G|---------0----|
    D|-------0---2--|
    A|-----2--------|
    E|---0----------|
    
           Hay mujeres por..................
         C     D      G  
  • +
    ¡Colabora con nosotros!
    Envíanos tu versión de esta canción

Letra de Amores Prohibidos
Corazones rotos en las avenidas
mariposas de color
fantasias en cualquier esquina
y yo sin su amor.
Hay mujeres por las que se da la vida
y un poquito mas
yo la quize desde el primer dia tanto
sin miedo sin más.
Amores prohibidos
que vienen y van
que nunca se han ido
que no volveran.
Amores que matan
que duelen de más
Amor de mentira
amor de verdad
acercate más.
Hay miradas que te dicen tanto
que te hacen soñar
madrugadas que jamas terminan
que nunca se iran.
Alguna vez te encontrare
me encontraras.
Amores prohibidos.....
(TONOS DEL CORO)
Amores prohibidos........
Termina con el intro solo una vez.
TONOS:
tengo entendido que aqui el unico tono que les haria falta
es el de: Emaj7(en el traste 12)
pues helo aqui:
Emaj7(traste 12)
(12)(12)(12)(12)(x)(x)
de los cuales, las qe tienen la x no se tocan.....=Þ
espero que les sirva de mucho ya que TODAS las rolas de elefante,
son muy buenas como para que las saquen a la ligera




[Amores Prohibidos chords][Amores Prohibidos cifra]
© LaCuerda.net · aviso legal · privacidad · es · en · pt · contacto