Acordes de Guitarra » C »Charly García » Pubis Angelical (Tab)

Pubis Angelical
Charly García

Letras, Acordes y Tabs para Guitarra, Bajo y Ukulele

  • 
    Esto es básicamente la tab de 'Pubis Abgelical'
    de Patricio Mac Adden (pato_ma@hotmail.com), a mi
    parecer, bastante mejorada (en la otra tab está
    muy simple y tiene un par de errores, además de que
    le falta el puente).
    Comentarios y sugerencias bienvenidos y agradecidos.
    
    
    s = slide
    v = vibrato
    b = bend
    
    
    Esta parte se repite dos veces. La primera vez toca (1) en B, y la
    segunda toca (2) en G. Después viene el puente que conecta con lo último.
    
    
    
    E |--------------------------------------------------------------------------
    B |------1-(1)-1---3-1-------------------------------------------------------
    G |----2---(2)---2-------------------------------------2-2b3-0---------2v----
    D |--3-----------------7s5-5s3-0-3-0-5s7s5s3-3-0---0-3---------3-0-3-0-----3-
    A |----------------------------------------------3---------------------------
    E |--------------------------------------------------------------------------
    
    
    Puente:
    
    
    E |-------------------5s3------
  • Un gran tema de Charly que merece una tablatura completa (y correcta).
    
    Esta versión esta hecha en base al tema original.
    
    ---------------------------------------------------------------------
    Guitarras originales: Pubis Angelical
    Charly García
    Pubis Angelical
    1982
    
    ---------------------------------------------------------------------
    
    Guitarra acústica:
    
    E----------8--8----8/10-8--------------------------------------/
    B-----8/10------10--------8/10-8------------8/10-8-------------/
    G--10----------------------------10--7-10-7--------10----------/
    D--------------------------------------------------------------/
    A--------------------------------------------------------------/
    E--------------------------------------------------------------/
    
    E--------------------------------------------------------------/
    B-------------------8/10-8/10-8------------9-8~----------------/
    G--10--6/7-----7-10-------------10--7-10-7------10~------------/
    D----------10----------------------------------------
  • +
    ¡Colabora con nosotros!
    Envíanos tu versión de esta canción






[Pubis Angelical chords][Pubis Angelical cifra]
© LaCuerda.net · aviso legal · privacidad · es · en · pt · contacto