Acordes de Guitarra » C »Charly García » Fanky (Tab)

Fanky
Charly García

Letras, Acordes y Tabs para Guitarra, Bajo y Ukulele

  • E/------------------------------------------------
    A/------------------------------------------------
    D/------------------------------------------------
    G/-6--7-7-7-7-7---6--7-7-7-7----------------------
    B/-5--6-6-6-6-6---5--6-6-6-6----------------------
    E/ -----------------------------------------------
    
    
    No voy a parar, yo no tengo dudas
    No voy a parar, déjalo que suba…
    Por esoo…
    No quiero parar, ya no tengo dudas
    No voy a parar, dejalo que suba…
    
    
    SOLm  FA              REm
        Gozar es tan parecido al dolor
    SOLm  FA              REm
        Gozar es tan diferente al dolor…
    
    
  • Este es un Riff que hace el piano en la intro y otras partes de la cancion, 
    adaptada a guitarra.
    
    E|------8----------|------8------------|------8----------|-----------8-10-|
    B|-8-10---10-8-6---|-8-10---10-8-6---6-|-8-10---10-8-6---|-8-10-8-10------|
    G|---------------7-|---------------7---|---------------7-|----------------|
    D|-----------------|-------------------|-----------------|----------------|
    A|-----------------|-------------------|-----------------|----------------|
    E|-----------------|-------------------|-----------------|----------------|
    
    Estirar la nota final de cada compas para darle el feeling del tema.
  • Por: Sebastián Ara.
    Buenos Aires, Argentina, 2009
    MSN Email: playing.the.angel_@hotmail.com
    _____________________________________________
    
    Como ninguna tablatura de bajo estaba bien, subo esta
    (o sea la correcta)
    
    Línea de bajo principal:
    G|----------------
    D|----------------
    A|5---------3---3-
    E|----0h4h5---5---
    [repite toda la canción fluídamente, ritmo de funk]
    
    
    Estos son riffs de bajo que se esuchan al final,
    los intercala con la Línea de bajo principal:
    G|-------------
    D|-------------
    A|-0h8-----0h5-
    E|-------------
    
    G|------------------
    D|-0-------5h7p5----
    A|---------(rápido)-
    E|------------------
    
    G|5h7p5-----------
    D|------5h7p5-----
    A|------------7p5-
    E|----------------
    (esta bajada por Re Menor la hace rápido)
    
    
    
    ___________________
    Por: Sebastián Ara.
    Buenos Aires, Argentina, 2009
    MSN Email: playing.the.angel_@hotmail.com
  •                                            ______2 veces______
    G|-------------------|-------------------| |-------------------||
    D|-------------------|-------------------| |-------------------||
    A|--1-----------1---1|--3-----------1---1| |--5-----------3---3||
    E|------0--1--3---3--|------0--1--3---3--| |------0--3--5---5--||
    
    
    Esto seria practicamente todo el tema
    El estribillo, se daran cuenta q son 2 compases diferentes
    y la base principal...
    
    Cuando empieza el tema q entra la bateria
    hagan un arraste desde abajo en la cuerda A hasta llegar al traste 5 (re)
    
    
    Intro: Base principal 8x (creo q son 8 veces)
    
    
    Base principal
    No voy a parar
    
  • Amonica en C
    
    Intro y Riff:
     (5)(5)(5)(5)(5)(5)(5) 5    (5)(5)(5)(5)(5) 5
     (5)(5)(5)(5)(5)(5)(5) 5    (5)(5)(5)(5)(5) 5
    
    
    A-
     (5) 6 (6)(5)(4)
    
      4  4  4  4  4 (4)
    
      5  6 (6)(5)(4)
    
      4  4  4  4  4 (4)
    
    
    B-
     (5) 6     6 (5) 6 (5)(6) 6 (5) 6 (4)(5)
    
     (5) 6     6 (5) 6 (5)(6) 6 (5) 6 (4)(5)
    
    
    C-
      7  7  7  7  7  7
    
     (4)(4)(4)(4)(4)(4) 4 (4) 4 (4) 4 (4) 4 (4)
    
     (5)(5)
    
    
    D-
     (9)(9)(9) 8 (8) 7
    
      7  7  7 (6)(5) 6  6  6 (6) 8
    
     (9)(9)(9) 8 (8) 7
    
      7  7  7 (6)(5) 6  6  6 (6) 8
    
    
    Secuencia de la cancion: A A B C A B D B
    
    
    elgatomarianoh@hotmail.com
    elgatomariano@yahoo.com.ar
    eljuiciodelterco@yahoo.com.ar
    snmarianodb@yahoo.com.ar
    
    
    SNMDB
  • Bueno, acá otro tema de Charly. En este son de 3 a 4 sonidos de teclado diferentes, 
    que son: el piano, brass y dos sonidos de teclado, uno mucho mas agudo y chillón 
    que el otro.
    Con el mas agudo hace la melodía característica del tema, mientras el Brass le hace 
    los graves. El otro teclado suena en el estribillo y es mas “metálico” que los otros. 
    El piano lleva el tema. Sin percusión y sin bajo...todo esto es al pedop....
    
    
    Minúsculas: notas por teclas
    Mayúsculas: mayores
    /: teclas combinadas
    -: nota a nota
    
    
    Intro:
    
    Empieza la guitarra tocando, después el bajo. En la segunda nota 
    del bajo el piano toca estas notas:
    
    d2-d3-d4-a4  tres veces a lo largo que toca la guitarra y hace enganches con  
    
     d2-d3-d4-g4-c5 y hace d2-d3-d4-a4-d5.
    
    Antes de hacer acorde (en ocasión), hace         
    
    g#3-g3-f3-g3-f3-d3
    d3------d3----d3
    
    
    El teclado agudo hace:
    
    g5-a5-c6-a5-g5-f5-d5----- g5-a5-c6-a5-g5-f5-d5-f5---- g5-a5-c6-a5-g5-f5-d5---g5-a5-c6-g5-a5-c
  • +
    ¡Colabora con nosotros!
    Envíanos tu versión de esta canción
  • Tutorial
    HD
    Explicado - Como tocar "Fanky" de Charly Garcia en el bajo tutorial#86
    5:41

Letra de Fanky
No voy a parar, yo no tengo dudas
No voy a parar, déjalo que suba…
Por esoo…
No quiero parar, ya no tengo dudas
No voy a parar, dejalo que suba…
Gozar es tan parecido al dolor
Gozar es tan diferente al dolor…
En la dirección, otra oportunidad
Merece una decisión…
Bastaaa…
No voy a parar, yo no tengo dudas
No voy a parar, dejalo que suba…
Gozar es tan parecido al dolor
Gozar es tan diferente a matar
Cuando pienso en el fin
Cuando pienso en todo lo que vi
Cuando llegue el final,
Cuando se bien que todo va a cambiar…
Gozar es tan necesario mi amor
Gozar es tan diferente al dolor
SIGUE HACIENDO LA INTRO HASTA EL FINAL!!!
ESPERO QUE ESTE BIEN!!!
SUERTEEE !!!
AGUANTE LA E.E.M N° 9
1° 1° EgEoR ¡!! ::
…::: LaUtY :::…




[Fanky chords][Fanky cifra]
© LaCuerda.net · aviso legal · privacidad · es · en · pt · contacto