Acordes de Guitarra » C »Canciones Populares » Mañanitas Guerrerenses (Tab)

Mañanitas Guerrerenses
Canciones Populares

Letras, Acordes y Tabs para Guitarra, Bajo y Ukulele

  • e|-0-0--0-0-2--0-0--|-----
    B|-2-2--2-2-3--2-2--|-----
    G|------------------|-E7--
    D|------------------|-----
    A|------------------|-----
    E|------------------|-----
    
    e|-0-2-4-5-4-2-0----|-----
    B|-2-3-5-7-5-3-2----|-----
    G|------------------|-A---
    D|------------------|-----
    A|------------------|-----
    E|------------------|-----
    
    
    e|-0-0--5-4-2-0----|------
    B|-2-2--7-5-3-2----|------
    G|-----------------|--E7--
    D|-----------------|------
    A|-----------------|------
    
  • +
    ¡Colabora con nosotros!
    Envíanos tu versión de esta canción

Letra de Mañanitas Guerrerenses
Estas son las mañanitas
que se cantan en Guerrero,
a las muchachas bonitas
y a los amigos sinceros.
Cantar, corazón, cantar,
cantar y seguir cantando,
hoy por ser día de tu santo
te estamos felicitando.
De muy lejos he venido
brincando los tepanoles
sólo por venir a ver
las ollotas de pozole
Llorar, corazón, llorar
llorar si tienes por qué
que no es afrenta del hombre
llorar por una mujer.
No traigo corona de oro
ni tampoco de cristal
sólo traigo mi barriga
pa’ llenarla de mezcal.
Esta casa esta medida
con varas de listón
en cada esquina una rosa
y en medio su corazón
De tanto cantar y cantar
ya me duele la cabeza
porque aquí no saben dar
ni un trago de cerveza
Por esta calle me voy
y por la otra doy la vuelta,
volveremos de aquí a un año
si Dios la vida nos presta.
Bueno aqui con una rolita muy tradicional del estado de guerrero...
y ps estos son agunos de los versos de la cancion original
bueno espero y les guste la version chenkenla y si quieren modifiquenla un poco
pero pues mas o menos ai esta en ese tono
by luisito....producciones kinchos boys... puro guerrero paisano xd




[Mañanitas Guerrerenses chords][Mañanitas Guerrerenses cifra]
© LaCuerda.net · aviso legal · privacidad · es · en · pt · contacto