Acordes de Guitarra » C »Canciones Populares » Cielito lindo (Tab)

Cielito lindo
Canciones Populares

Letras, Acordes y Tabs para Guitarra, Bajo y Ukulele

  • E
    De la Sierra Morena,
    
    cielito lindo,
              B7
    vienen bajando
    
    un par de ojitos negros,
    
    cielito lindo,
               E
    de, contrabando.
    E7           A  C#7
    Ay, Ay, Ay, Ay,
    F#m7   B7     E
    Canta y no llores
                        F#m7
    Porque cantando se alegran,
             B7            E
    Cielito lindo los corazones.
    
  • C
    De la Sierra Morena, cielito lindo,
                G7
    vienen bajando
    un par de ojitos negros, cielito lindo,
                   C
    de, contrabando.
    
    C
    Ese lunar que tienes, cielito lindo,
                 G7
    junto a la boca,
    no se lo des a nadie, cielito lindo,
                   C
    que a mí me toca.
    
    
    Coro (Se toca dos veces)
    
    C7           F
    
  • e-3-3-0-2---3-3-0-2---3-3-0-2-----------------------
    B---------3---------3---------3-1-------------------
    G---------------------------------2-----------------
    D---------------------------------------------------
    A---------------------------------------------------
    E---------------------------------------------------
    
    e-2-2-2-0-0-0---------------------------------------
    B-----------------1-3-3-1---------------------------
    G-------------2-4---------4-2-0---------------------
    D---------------------------------------------------
    A---------------------------------------------------
    E---------------------------------------------------
    
    
    e--7-5-3-0-5-5-3-7------0-0-0---------2---0-0------------
    B------------------3--3--3---3-1-1------3-----3-1--------
    G----------------------------------2--------------4-2-0--
    D--------------------------------------------------------
    A--------------------------------------------------------
    
  • e-5-5-2-4-0--5-5-2-4-0--5-5-2-4-0------4-4-4-2-0------------
    B---------------------------------3-0------------3-3-0-2-3--
    G-----------------------------------------------------------
    D-----------------------------------------------------------
    A-----------------------------------------------------------
    E-----------------------------------------------------------
    
    
    e-0-0-0----------------------------------------------------
    B-------3-2-0----------------------------------------------
    G-------------2----------------------------------------X3--
    D----------------------------------------------------------
    A----------------------------------------------------------
    E---------------------------------------------------------
    
    
    
    e-9------------------9-----0-2-0-2-2-0-10-10-----4-0-2-2-0--
    B--12-10----12-12-10--10---------------------12-------------
    G--------11-------------------------------------------------
    
  • (Guitarra Afinación: Mi)
    (Armónica : C) (Robinson Perez)
    
    C
    7 7 (6) (7) 6 7 7
    De la sierra morena
    G
    (6) (7) 6 7 7 (6) (7) 6 (5) (4)
    Cielito lindo vienen bajando
    
    (7) (7) (7) (6) 6 (5) (5)
    Un par de ojitos negros
    C
    (4) 5 (5) 6 6 6 (5) 5 (4) 4
    Cielito lindo, de contrabando.
    F
    8 (8) 7 (6)
    B) si, ay, ay ay
    C
    (8) (8) 7 8 7
    canta y no llores
    G
    6 (6) 6 (6) (6) (5) (9) (9)
    porque cantando se alegran
    C
    (8) (7) 6 (6) (6) 6 (5) 5 (4) 4
    cielito lindo los corazones.
  • +
    ¡Colabora con nosotros!
    Envíanos tu versión de esta canción

Letra de Cielito lindo
De la Sierra Morena,
cielito lindo,
vienen bajando
un par de ojitos negros,
cielito lindo,
de, contrabando.
Ay, Ay, Ay, Ay,
Canta y no llores
Porque cantando se alegran,
Cielito lindo los corazones.
Ese lunar que tienes,
cielito lindo,
junto a la boca,
no se lo des a nadie,
cielito lindo,
que a mí me toca.
Ay, Ay, Ay, Ay,
Canta y no llores
Porque cantando se alegran,
Cielito lindo los corazones.
CAMBIO TONALIDAD
Ay, Ay, Ay, Ay,
Canta y no llores
Porque cantando se alegran,
Cielito lindo los corazones.
Ay, Ay, Ay, Ay,
Canta y no llores
Porque cantando se alegran,
Cielito lindo los
corazones.




[Cielito lindo chords][Cielito lindo cifra]
© LaCuerda.net · aviso legal · privacidad · es · en · pt · contacto