Acordes de Guitarra » C »Canciones Populares » Feliz cumpleaños (Tab)

Feliz cumpleaños
Canciones Populares

  • Letra y Acordes
    C             G
    Cumpleaños feliz
                  C
    Cumpleaños feliz
                  F
    Te deseamos todos
    C          G  C
    Cumpleaños Feliz
    
    C                 G
    Que los cumpla feliz
                        C
    Que los vuelva a cumplir
                     F
    Que los siga cumpliendo
    C            G   C
    Hasta el año diezmil
  • Tablatura
    1|-------------------------2--------7-4-----------5-5-4----2----|
    2|--0-0-2-0--5-4--0-0-2-0----5--0-0------5-5-4-2--------5----5--|
    3|--------------------------------------------------------------|
    4|--------------------------------------------------------------|
    5|--------------------------------------------------------------|
    6|--------------------------------------------------------------|
  • Tablatura
    esta es una cancion de cumpleaños muy actualizada pa que la cantes
    a tu family o tu pareja
    a y le va
    
    e|------------------------------3-0-------1-1-0--------|
    b|---------1-0---------3-1----------1-0---------1-3-1--|
    g|-0-0-2-0-----0-0-2-0------0-0---------2--------------|
    d|-----------------------------------------------------|
    d|-----------------------------------------------------|
    a|-----------------------------------------------------|
    
    e|----------------|
    b|-----1-1-3-1----|
    g|-2-2------------|
    d|----------------|
    d|----------------|
    a|----------------|
    
    
    
    VIVA LAS FIESTAS
  • Tablatura
    Armonica en Do(c)
    -(x)Aspirado
    -x Soplado
    -xb Bending
    
    
    (3) (3) (4) 4 - (5) 5
    (3) (3) (4) 4 (5) 5
    (4) (4) (5) 5
    (4) (4) 4 (3)
    (5) (5) 5 4 (4) 4b
    
    
    En el ultimo 4 soplado, se puede hacer un bending o no
    
    Saludos!
    
    
    Vi versiones anteriores, y como
    la tengo bastante clara con la armónica subo esta versión,
    si practican y les sale bien van a ver que esta muy buena,
     espero les guste.
  • Armónica
    Armonica en C 'Do'
    
    6 6 (6) 6 7 (7)
    6 6 (6) 6 (8)7
    6 6 9 8 7 7 (7) (6)
    (9) (9) 8 7 (8) 7
    
    Ej:
       6 --> Soplar
      (6)--> Aspirar
  • +
    ¡Colabora con nosotros!
    Envíanos tu versión de esta canción

Letra de Feliz cumpleaños
Cumpleaños feliz
Cumpleaños feliz
Te deseamos todos
Cumpleaños Feliz
Que los cumpla feliz
Que los vuelva a cumplir
Que los siga cumpliendo
Hasta el año diezmil



© LaCuerda.net · aviso legal · privacidad · contacto