Acordes de Guitarra » C »Canciones Populares » El Condor pasa (Tab)

El Condor pasa
Canciones Populares

Letras, Acordes y Tabs para Guitarra, Bajo y Ukulele

  • Dm                          F
    El amor como un cóndor volara
     
    Mi corazón
           Dm
    Golpeara
    A7          Dm
    Después sé ira
    
    Dm                          F
    La luna en el desierto brillara
    
    Tu vendrás
                  Dm
    Solamente un beso
    A7       Dm
    Me dejaras
    
            Gm               C7
    Quien sabe mañana donde iras
    
  • EL CONDOR PASA
    
    
    e]-------------------------|
    b]-0-3/5-3-5-7-8-7-8-10-12-|
    g]-------------------------|
    d]-------------------------|
    a]-------------------------|-
    e]-------------------------|
    
    e|-------------------------------------------------|
    b]-15-15--12----17-15-12--12-----------------------|
    g]----------------------------14--12--14-12-9—12—9-|
    d]-------------------------------------------------|
    a]-------------------------------------------------|
    e]-------------------------------------------------|
    
    e]-----------------------------------|
    b]---14--12-14-12-14-12-14--16-14-12-|
    g]-9---------------------------------|
    d]-----------------------------------|
    a]-----------------------------------|
    e]-----------------------------------|
    
    e]-----------------------------------------|
    b]--12-10-8--10--12~-14~---14--12-14-12-14-|
    g|-----------------------9-----------------|
    d]-----------------------------------------|
    a]-----------------------------------------|
    e]------------------------
  • SI LA toca en Bm
    
    Intro
        Bm                D                    Bm F#7   Bm
    e|-------------------2---5-5-2---7-5-7-5-7-2---2-0----
    B|----------2-3-2-3-5------------------------------3-0
    G|----4-3-4-------------------------------------------
    D|--4-------------------------------------------------
    A|----------------------------------------------------
    E|----------------------------------------------------
    
         Bm                      D
     El amor, como un cóndor bajará...
    
    e|-------------------------0-2------------------------
    B|---------0-2-----3---2--3---------------------------
    G|--4--3----------------------------------------------
    D|4---------------------------------------------------
    A|----------------------------------------------------
    E|----------------------------------------------------
    
  •                              (C)                  (G)   (C)
    1.---------------------------------------0---------3-----------|
    2.--------------0--1--0--1----1--------1---1-------------1-----|
    3.----2--1--2------------------------0-------0-----------------| X2
    4.-2--------------------------2----2---------------------2-----|
    5.----------------------------3--------------------2-----3-----|
    6.-------------------------------------------------3-----------|
    
                 (C)                        (Lm)
    1.--5-----3---1---------0--------------------|
    2.--------------------1---1------3--1----1---|
    3.------------------0------0-------------2---|
    4.------------2---2----------------------2---|
    5.------------3------------------------------|
    6.-------------------------------------------|
    
        (E)                                                   (Lm)  (E) (Lm)
    1.------------3--3----4--3--4--3----4--4-----5----3----0-----------------|
    2.------------4--4----5--4--5--4----5--5-------------------1----------1--|
    3.---1--------3--3----4--3--4--3----4--4-------------------2-----1----2--|
    
  • Esta canción la dedico a todos los huamachuquinos del Perú.
    Alguna queja o consulta escribanme a mi correo luakpo_27@hotmail.com
    
    *Esta es una canción bien lenta escuchenla bien.
    ---------------------------------------------------------------------
                            El Condor Pasa
    
    e]--------------------0--3-3-0--5-3-5-0------------
    b]----------0-1-0-1-3-------------------3-1-3------
    g]----2-1-2-----------------------------------2----
    d]--2----------------------------------------------
    a]-------------------------------------------------
    e]-------------------------------------------------
    
    e]--0-5--3-5-3-5-3-5--7-5-3--3-5-3-0----
    b]--------------------------------------
    g]--------------------------------------
    d]--------------------------------------
    a]--------------------------------------
    e]--------------------------------------
    
    e]--0-5--3-5-3-5-3-5--7-5-3--3-5-3-0----------
    b]------------------------------------3-1-----
    g]----------------------------------------2---
    d]-----
  • Lo ideal para tocar esta cancion es una armónica en c
    (do) y saber hacer muy bien los bendings.
    
     (5)= nota 5 aspirada
      5 = nota 5 soplada
    (5b)= nota 5 doblada(bending)
    
    5 (6) (6b) (6) (7) 7 (7) 7 (8) 8 8...
    8 (10) 9 8 8    8 (10) 9 8 8
    8 (8) 7 (8) 7 (6)     7 (6)
    
    8 (10) (9b) (10) (9b) (10) (9b) (10) (10)
    (10) 10 (10) 9 8   8 9 8 9 8   8 (8)
    8 (10) (9b) (10) (9b) (10) (9b) (10) (10)
    (10) 10 (10) 9 8   8 9 8 9 8   8 (8) 7 (8) 7 (6)
    7 (6)
  • Em                               G
    El a--mor có-moun cón-dor vo--la-rá
    si mi re# mi fa#  sol fa# sol la si
     		  
    mi co-ra-zón, gol-pe-a--rá
    mi mi re si   mi  mi re si
    
              B7 Em   B7  Em
    des-pués séi rá.
    si  la   sol mi
    
    
    
    Em                                 G
    La lu-naen el de--sier-to  bri-lla-rá
    si mi re#  mi fa# sol  fa# sol la si
     
    tú ven-drás, so-la-men-teun be-so
    mi re  si    mi re mi  re   mi si
    
          B7  Em  B7  Em
    me de-ja--rás
    si la sol mi
    
    
    
    CORO
          C  
    Quien sa-be  ma-ña--na don-de i---rá--ás
    si    mi re# mi re# mi re# mi fa# sol mi
    
           G	      Em        
    que ha-rás, me pen-sa-rás;
    sol mi re   re mi  re si
    
       C     
    yo sé que nun-ca  vol-ve--rá--ás
    si mi re# mi  re# mi  fa# sol mi
     
    	    G            Em            
    más pien-so que no vi-vi-ré,
    sol sol  mi re  re mi re si
    
    B7        Em    B7  Em
    có-mo po--dré.
    si la sol mi
    
    
    
    
    
    Em				    G
    Laan gus-tia yel do--lor me  de--ja-rá
    si   m
  • +
    ¡Colabora con nosotros!
    Envíanos tu versión de esta canción

Letra de El Condor pasa
El amor como un cóndor volara

Mi corazón
Golpeara
Después sé ira
La luna en el desierto brillara
Tu vendrás
Solamente un beso
Me dejaras
Quien sabe mañana donde iras
Que harás, me pensaras
Yo sé que nunca volverás
Mas pienso que
No viviré
Como podré
La angustia y el dolor
me dejara
sufrirá y morirá
El amor como un cóndor volara
sufrirá y morirá
regresaras
Yo sé que nunca volverás
mas pienso que no viviré
como podré...




[El Condor pasa chords][El Condor pasa cifra]
© LaCuerda.net · aviso legal · privacidad · es · en · pt · contacto