Acordes de Guitarra » C »Canciones Populares » La Cucaracha (Tab)

La Cucaracha
Canciones Populares

Letras, Acordes y Tabs para Guitarra, Bajo y Ukulele

  • LA 
    La cucaracha, la cucaracha
                    MI7
    ya no puede caminar
    por que no tiene, por que le faltan
                         LA 
    las dos patitas de atras
    
    B)
    
    LA 
    Ya murió la cucaracha
                       MI7
    ya la llevan a enterrar
    entre cuatro zopilotes
                        LA 
    y un ratón de sacristan
    
    Cuando la perica quiere
    que el perico valla a misa
    
  • Este tab es para guitarra NO para requinto 
    
    
    e--------1-5--------1-5--1-1-0-0-----------------------
    B--1-1-1------1-1-1--------------3-3-1-----------------
    G------------------------------------------------------
    D------------------------------------------------------
    A------------------------------------------------------
    E------------------------------------------------------
    
    
    e--------0-3--------0-3--8-10-8-6-5-3-1----------------
    B--1-1-1------1-1-1------------------------------------
    G------------------------------------------------------
    D------------------------------------------------------
    A------------------------------------------------------
    E------------------------------------------------------
    
    
    e------1-1-5-5-8-5--8-10-8-6-5-8-6-3-------------------
    B--1-1-------------------------------------------------
    G------------------------------------------------------
    D------------------------------------------------------
    A------------------------------
  • bueno esta cancion es algo sencilla (un buen comienzo)
    esta version la pongo porque las otras no son nada buenas
    
    Una cosa mas: la cancion esta basada en el acorde de
    do mayor(C/G) si lo aplican les sera mucho mas facil.
    
    C 332010
    
    Espero les sirva:
    
    3/4
    
    
    0  .     .     .       .     .     .       .     .     .
    e|-------------------|-------0-----------|-------0-----------|
    B|-------------------|-1-----------------|-1-----------------|
    G|----------0--0--0--|----------0--0--0--|-------------------|
    D|-------------------|-------2-----------|-------2-----------|
    A|-------------------|-3-----------------|-3-----------------|
    E|-------------------|-------------------|-------------3-----|
    
    
    3  .     .     .       .     .     .       .     .     .
    e|-------------------|-------------------|-------------------|
    B|-1--1--0--0--------|-------------------|-0-----3-----------|
    G|-------------2--2--|-0--------0--0--0--|----------0--0--0--|
    D|-------------------|-------0-----------|-------0----------
  • Armonica en C
    
    1º parte  4 4 4 (5) (6)
              4 4 4 (5) (6)
              (5)(5) 5 5 (4)(4) 4
    
    2º parte  4 4 4 5 6
              4 4 4 5 6
              7 (7) 7 (6) 6 (5) 5
  • +
    ¡Colabora con nosotros!
    Envíanos tu versión de esta canción

Letra de La Cucaracha
La cucaracha, la cucaracha
ya no puede caminar
por que no tiene, por que le faltan
las dos patitas de atras
Ya murió la cucaracha
ya la llevan a enterrar
entre cuatro zopilotes
y un ratón de sacristan
Cuando la perica quiere
que el perico valla a misa
se levanta muy temprano
y le plancha la camisa
Cuando la perica quiere
que el perica vaya el teatro
se levanta muy temprano
y le lustra los zapatos.




[La Cucaracha chords][La Cucaracha cifra]
© LaCuerda.net · aviso legal · privacidad · es · en · pt · contacto