Acordes de Guitarra » C »Canciones Populares » Estrellita donde estas (Tab)

Estrellita donde estas
Canciones Populares

Letras, Acordes y Tabs para Guitarra, Bajo y Ukulele

  • e||-----------------------------------------------------|
    B||-----------------------------------------------------|
    G||---------0--0--2--2--0-------------------------------|
    D||------------------------3--3--2--2--0--0-------------|
    A||---3--3-----------------------------------3----------|
    E||-----------------------------------------------------|
    
    e||-------------------------|---------------------------|
    B||-------------------------|---------------------------|
    G||---0--0------------------|---0--0--------------------|
    D||---------3--3--2--2--0---|---------3--3--2--2--0-----|
    A||-------------------------|---------------------------|
    E||-------------------------|---------------------------|
    
    e||-----------------------------------------------------|
    B||-----------------------------------------------------|
    G||---------0--0--2--2--0-----------------0-------------|
    D||------------------------3--3--2--2--0----------------|
    A||---3--3-----------------------------------3----------|
    E||---------
  • e--------------------0---0----------------
    B-----------3---3-------------0-----------
    G--0---0------0---0----0---0----0---0-----
    D----0---0------------------------0-------
    A-----------2--------3--------2-----------
    E--3--------------------------------------
    
    Tema
    
    e--------------------0---0------------------------------------------------
    B-----------3---3-------------0--------1---1----0---0---------------------
    G--0---0------0---0----0---0----0---0--------------------2---2----0-------
    D----0---0------------------------0------0---0----0---0----0---0----0---0-
    A-----------2--------3--------2--------0------------------------------2---
    E--3--------------------------------------------3--------2--------3-------
    
    
    e-------------------------------------------------------------------------
    B--3--3----1---1----0---0--------------3--3----1---1----0---0-------------
    G----------------------------2--------------------------------------------
    
  • +
    ¡Colabora con nosotros!
    Envíanos tu versión de esta canción






[Estrellita donde estas chords][Estrellita donde estas cifra]
© LaCuerda.net · aviso legal · privacidad · es · en · pt · contacto