Acordes de Guitarra » C »Canciones Populares » Huaral de mis amores (Tab)

Huaral de mis amores
Canciones Populares

Letras, Acordes y Tabs para Guitarra, Bajo y Ukulele

  •  Am                                    G
    huaral de mis amores, huaral pueblo querido,
    
                    F                   E
    encierras un ambiente, de vieja tradición,
    
                      C                    G
    son bellos tus paisajes, bonitas tus mujeres,
    
                   E                    Am
    eres huaral querido, un pueblo sin igual.
    
                 F                    C
    por eso te dedico, a ti huaral querido,
    
                      Dm                Am
    esta canción que lleva, toda mi inspiración,
    
                       C                C7
    y que al salir de aquí, tu nombre evocaré,
    
  • E----------------4----5------|--5-5--5-5---4-4---7--10---|
    B----------------3----5------|--6-6--6-6---5-5---9--12---|
    G--------1--4----4----5------|---------------------------|
    D-----3----------------------|---------------------------|
    A--2-------------------------|---------------------------|
    E----------------------------|---------------------------|
    
    
    E---12--10-----8--8----------|--12-12--10-10--9--9-------|
    B---13--12-----10-10---------|--13-13--11-11-10--10------|
    G----------------------------|---------------------------|
    D----------------------------|---------------------------|
    A----------------------------|---------------------------|
    E----------------------------|---------------------------|
    
    
    
    E------3--5--3--1--1---------|--5--4--5--5---0-----0-----|
    B---5--5--6--5--3--3---------|--6--5--6--6---1--4--1-----|
    G---6------------------------|------------------4--------|
    
  • +
    ¡Colabora con nosotros!
    Envíanos tu versión de esta canción

Letra de Huaral de mis amores
huaral de mis amores, huaral pueblo querido,
encierras un ambiente, de vieja tradición,
son bellos tus paisajes, bonitas tus mujeres,
eres huaral querido, un pueblo sin igual.
por eso te dedico, a ti huaral querido,
esta canción que lleva, toda mi inspiración,
y que al salir de aquí, tu nombre evocaré,
llevando tu recuerdo, llevando tu alegría,
o dulce tierra mía, que lindo es mi huaral.




[Huaral de mis amores chords][Huaral de mis amores cifra]
© LaCuerda.net · aviso legal · privacidad · es · en · pt · contacto
DINAMICO