Acordes de Guitarra » C »Canciones Populares » El tololoche chicoteado (Tab)

El tololoche chicoteado
Canciones Populares

  • Tablatura
              G                   D                   A                     D
    e|-------------------|-------------------|-------------------|--------------------|
    B|-------------------|-------------------|-------------------|--------------------|
    G|-------------------|--4----------------|-------------------|-------------7-6-5--|
    D|------4-5-------5--|----7-5-4-------4--|--7-5-4------------|--4h5p4-------------|
    A|--5-7-----5---5----|----------5---5----|--------7-5-4-5-7--|--------7-5--5-4-3--|
    E|------------5------|------------5------|-------------------|--------------------|
    
              G                   D                   A                     D
    e|-------------------|-------------------|-------------------|--------------------|
    B|-------------------|-------------------|-------------------|--------------------|
    G|-------------------|--4----------------|-------------------|--------------------|
    D|------4-5-------5--|----7-5-4-------4--|--7-5-4------------|--4h5p4-------------|
    A|--5-7-----5---5----|----------5---5----|--------7-5-4-5-7--|--------7-5---------|
    E|------------5------|------------5------|-------------------|--------------------|
    
              D                    A                   D                    G
    e|-------------------|-------------------|-------------------|--------------------|
    B|-------------------|-------------------|-------------------|--------------------|
    G|-------------------|-------------------|-------------------|--------------------|
    
  • +
    ¡Colabora con nosotros!
    Envíanos tu versión de esta canción

Letra de El tololoche chicoteado
REQUINTO: (Escala de Re)
Checa Bien el requinto, hay reglones que parecen iguales
pero no lo son. Va en el orden esacto que biene aquí.
La canción se toca en el siguiente orden:
-Bajeo
-Requinto
-Bajeo
-Requinto
-Bajeo.
dudas: jorgernesto_@hotmail.com



© LaCuerda.net · aviso legal · privacidad · contacto