Acordes de Guitarra » C »Canciones Populares » A la orilla de un palmar (Tab)

A la orilla de un palmar
Canciones Populares

Letras, Notas, Punteos, Tablaturas y Acordes de Guitarra (Tabs & Chords)

  • Tablatura
    E ---0-4-4-4-4-2-4-0----------4-7-7-7-5-4-5-7-9--
    B -0---------------------------------------------
    G ---1-4-4-4-4-2-4-1----------4-8-8-8-6-4-6-8-9--
    D -2---------------------------------------------
    A -----------------------------------------------
    E -----------------------------------------------
    
    INTRO (Guitarra 2)
                      E        E7              A
    E -------------------0-------------------------5--
    B -------------------0--4--3------3----------5----
    G -------------------1-----1------1--1-2-4-6---7--
    D -------------------2-----2------0---------------
    A --------------------------------2----------7----
    E ----------------0-------------0----0-2-4-5------
    
    (Guitarra 1)
    
    E -5-5-7-5-4-2-4-0-----9-9-7-2-5---0-4-7-12-------|
    B -------------------------------4-0--------------|
    
  • +
    ¡Colabora con nosotros!
    Envíanos tu versión de esta canción

Letra de A la orilla de un palmar
(Guitarra 1)
(Guitarra 2)
MELODÍA (Parte A)
A lao ri-lla deun pal-mar, yo vi a una jo-ven be-lla
su bo-qui-ta de co-ral, sus o-ji-tos dos es-tre-llas,
(Parte 2)
al pa-sar le pre-gun-té, que quién es-ta-ba con e-lla
y me con-tes-tó llo-ran-do, só-la vi-vo en el pal-mar.
(Parte 3)
Soy huer-fa-ni-ta ay, no ten-go pa-dre, ni mad-re, nin-gún
a-mi-go ay, quien me quie-ra con-so-lar; so-li-ta pa-so la
vi-da a lao ri-lla de un pal-ma-ar, y so-li-ta voy y ven-go
co-mo las o-las del mar.
se puede continuar con la parte 3 cantada hasta el final.

Videos de A la orilla de un palmar
[ver más videos]

[ver todas las canciones]


© LaCuerda.net · Aviso Legal · Privacidad