Acordes de Guitarra » C »Camila » Decidiste Dejarme (Tab)

Decidiste Dejarme
Camila

  • Letra y Acordes
    Intro: (Bm - A - E)x3
    
    D       E           F#m
    Me envenenaste el silencio
    D          E            F#m
    Se fue mi aire detrás de ti
    D      E                 F#m
    Me arrebataste hasta el suelo
    D              E
    Tiraste y me rompí
    
    D           E       F#m
    Y fue una bomba de tiempo
    D         E               F#m
    Todo el dolor que dejaste aquí
    D       E          F#m
    Pero después del incendio
    D                   E               F      G
    De nuevo quieres derrumbar lo que quedo de mi
    
    
  • Letra y Acordes
          Bm      A           E
    e-----------------------------
    B ---3--------2-----------0---
    G -----4--------2---------1---
    D -------4--------2-------2---
    A ---2--------0-----------2---
    E ----------------------------
                 Bm         A           E
    e -------------------------------------
    B -----------3--------2----------0-----
    G ------2h4----4--------2--------1-----
    D --2/4----------4--------2------2-----
    A -----------2--------0----------2-----
    E -------------------------------------
    
    
    D          E          F#m
     Me envenenaste el silencio
    D           E        F#m
     Se fue mi aire y detrás de ti
    
  • Letra y Acordes
    B5-Db5 y Eb5-F5 son arreglos que hace para pasar a la siguiente
    nota, el guión indica "slide".
    
    F/A: 5 X X 5 6 5 o 5 8 7 5 6 5
    B5:  X 2 4 4 X X
    Db5: X 4 6 6 X X
    Eb5: X 6 7 7 X X
    F5:  X 8 10 10 X
    
    Intro: Cm Bb F/A
    
    Eb        F          Gm
    Me envenenaste el silencio
    Eb         F      Gm
    Se fue mi aire detrás de ti
    Eb        F         Gm
    Me arrebataste hasta el suelo
         Eb           F
    Me tiraste y me rompí
    
    
  • Tablatura
    e------------------------------|
    B ---3---3----2---2-----0------|
    G -----2--------2-------1------|
    D -----------------------------|
    A ---2--------0----------------|
    E ----------------------0------|
    
    e --------------------------------------|
    B -----------3---3----2---2----0--------|
    G ------2h4----2--------2------1--------|
    D --2/4---------------------------------|
    A -----------2--------0-----------------|
    E -----------------------------0--------|
    
    Este Arpegio Se Utiliza En Los Versos De La Canción
       D           E          F#m
    e --------2--------------------------------|
    B ------3-----------0----------2-----------|
    G ----2-----------1----------2-------------|
    D --0-----------2----------4---------------|
    
  • +
    ¡Colabora con nosotros!
    Envíanos tu versión de esta canción
  • Tutorial
    Como tocar "Decidiste Dejarme" de Camila - Tutorial Guitarra (Acordes)
    HD
    8:16

Letra de Decidiste Dejarme
Me envenenaste el silencio
Se fue mi aire detrás de ti
Me arrebataste hasta el suelo
Tiraste y me rompí
Y fue una bomba de tiempo
Todo el dolor que dejaste aquí
Pero después del incendio
De nuevo quieres derrumbar lo que quedo de mi
Tu decidiste dejarme, tu disparaste primero
Ni se te ocurra acercarte, no te perdono ni quiero
Nada más de ti y aunque tu recuerdo arde
No voy a caer otra vez llegaste tarde
Y no es cuestión de egoísmo
No fue tan fácil dejarte ir
Quieres que juegue a lo mismo
Correr detrás de ti
Te quise y no me arrepiento
Por qué me llevo lo que aprendí
A veces ganas perdiendo
Y no hay manera de fallar si das como te di
Tu decidiste dejarme, tu disparaste primero
Ni se te ocurra acercarte, no te perdono ni quiero
Nada más de ti y aunque tu recuerdo arde
No voy a caer otra vez llegaste tarde
Al final la vida pone a cada quien en su lugar
Eso es lo que pasa cuando tratas de tocar el fuego
Tu decidiste dejarme tu disparaste primero
Ni se te ocurra acercarte, no te perdono ni quiero
Nada más de ti y aunque tu recuerdo arde
No voy a caer otra vez llegaste tarde
Outro: (Dm - C - G)x3



© LaCuerda.net · aviso legal · privacidad · contacto
DINAMICO