Acordes de Guitarra » C »Camila » Todo Cambió (Tab)

Todo Cambió
Camila

Letras, Acordes y Tabs para Guitarra, Bajo y Ukulele

  • F F7 Bb Bbm
    
    
    F      F7              Bb  Bbm
    Todo cambió, cuando te ví
    F                     F7        Bb    Bbm
    de blanco y negro a color, me convertí
             Gm               Am
    y fue tán fácil, quererte tanto,
    Bb           Am
    algo que no imaginaba,
    
    Bb                 C      C7            Bb
    fue entregarte mi amor con una mirada
    
    
    F      F7              Bb   Bbm
    Todo tembló, dentro de mi
    F                  F7              Bb    Bbm
    el universo escribió, que fueras para mi
    
  • Intro    F   Fmaj7   Bb   Bbm       F   F7   Bb   Bbm
    
    F       Fmaj7          Bb      Bbm                Fmaj7   102210
    Todo cambió, cuando te vi, oh oh!
    F                     F7        Bb       Bbm
    de blanco y negro a color, me convertí,
              Gm               Am
    y fue tan fácil, quererte tanto,                    F/A   5XX565
    Bb                 F/A
    algo que no imaginaba,
    Gm                 C              Bb
    fue entregarte mi amor, con una mirada.
    
    
    (mismos acordes)
    Todo tembló, dentro de mí,
    el universo escribió, que fueras para mí,
    y fue tan fácil, quererte tanto,
    algo que no imaginaba,
    Gm                    F/A             Bb                C
    
  • --"Enzo"--
    Que les sirva de algo...
    
    Camila - Todo Cambio
    
    Intro:
    
    e|------------------------------------------------------------|
    b|------------------------------------------------------------|
    g|-------------------------------10-12S13-10-12s13-12-10-12---|
    D|--------10-10h12---------10-12------------------------------|
    A|-11h12------------10h12-------------------------------------|
    E|------------------------------------------------------------|
    
    e|--------------------------8/10/8----------------------------------------|
    b|--------------------8h10--8/10/8--13s13p13------------------------------|
    g|-------10-12/13/10----------------12s14p12--10-------10-10h12-----------|
    D|--10-12----------------------------------------10h12----------10-11-10--|
    A|------------------------------------------------------------------------|
    E|------------------------------------------------------------------------|
    
  • E-------------------------------------------------------
    A-11/12----------12-------------------------------------
    D-------10-10/12----12----------------------------------
    G----------------------10--12-12-10------10-10/12-(10)--
    B-----------------------------------9/10----------------
    e-------------------------------------------------------
    
    
    E---------------------------------------------------------
    A---------------------------------------------------------
    D-10-12-----------------------------------12---------11-10
    G-------10-12----12-10-----------------------10-10h12-----
    B-------------10-------10--------10-12-13-----------------
    e-------------------------9/10-9--------------------------
    
    
    F         F7           A#     A#m
    Todo cambió, cuando te ví
    F                      F7           A#       A#m
    de blanco y negro a color, me convertí
    
  •    F   F7    A#  A#m  Gm   Am    C    C7
    e--1----1----6----6----3----5----8-----8----
    b--1----1----6----6----3----5----8-----8----
    g--2----2----7----6----3----5----9-----9----
    d--3----1----8----8----5----7----10----8----
    a--3----3----8----8----5----7----10----10---
    E--1----1----6----6----3----5----8-----8----
    
    
    
    Intro
    
    e|------------------------------------------------------
    b|--------------------------------------------8h10/6h8--
    g|-------------------------------10-12S13-10------------
    D|------10-10h12----------10-12-------------------------
    A|-11h12------------10h12-------------------------------
    E|------------------------------------------------------
    
    e|----------------------------8/10/8--------------------
    
  • también LA dedico A Yordania quien es la inspiración para  que todas
    estas lindas canciones sean una razón mas para cantar para ti.
    
    Toques Piano.
    e|-------------------------------------------------------------1--------|
    B|---------------------------------------------------------1h3---1h3-1--|
    G|----------------------------------------------------------------------|
    D|-----3-3--------------------------------------------------------------|
    A|-3-5------------------------------------------------------------------|
    E|----------------------------------------------------------------------|
    
    Toques Guitarra.
    e|----------------------------------------------------------------------|
    B|---------------------------------6h8-6h8p6--8/10p6-8~.----------------|
    G|----------------5-5h7--------5h7--------------------------------------|
    D|------------5h7-------6/7~.-------------------------------------------|
    A|----------------------------------------------------------------------|
    E|----------------------------------------------------------------------|
    
    e|---------------------3/5-8h10p8---------------------------------------|
    
  •   TODO TEMBLÓ DENTRO DE MI...
    
      1   2   3   |
    
    G|------------|------------|------------|------------|
    D|------------|------------|3-----------|(3)-----3---|
    A|------------|--------3---|------------|----3-------|
    E|1-----------|(1)---------|------------|------------|
    
      1   2   3   |
    
    G|------------|------------|------------|------------|
    D|------------|------------|------------|----3-------|
    A|1-----------|(1)---------|1-----------|(1)---------|
    E|------------|--------1---|------------|--------1---|
    
      1   2   3   |
    
    G|------------|------------|------------|------------|
    D|------------|------------|3-----------|----3-------|
    A|------------|--------3---|------------|--------3---|
    E|1-----------|(1)---------|------------|1-----------|
    
      1   2   3   |
    
    G|------------|------------|------------|------------|
    D|------------|------------|------------|------------|
    A|1-----------|(1)---------|1-----------|(1)-----0---|
    E|------------|--------1---|------------|------------|
    
      1   2   3   |
    
  • F3 C4 D4 F3  F3  F3 G3 F3
    Todo cambió, cuando te ví
    
    A3 F3       A3    C4  D4   D4 A3 G3 F3
    de blanco y negro a color, me convertí
    
    D3 F3 G3 A3 C4  LA#X2 A3 A3 A3 G3 C4 SOLMX2
    y fue tán fácil,      quererte tanto,
    
    A#4 A4 G4 F4 G4 A4 D4 C4
    algo  que   no imaginaba,
    
    A#3 A#3 A#3 A#3 D4  C4  C4 C4 C4 D4 G3 F3
    fue entregarte  mi amor con  una mirada
    
    
    
    F3 C4 D4 F3  F3  F3 G3 F3
    Todo tembló, dentro de mi
    
    A3 F3       A3    C4  D4   D4 A3 G3 F3
    el universo escribió, que fueras para mi
    
    D3 F3 G3 A3 C4  LA#X2 A3 A3 A3 G3 C4 SOLMX2
    y fué tan fácil       quererte tanto
    
    A#4 A4 G4 F4 G4 A4 D4 C4
    algo que no imaginaba
    
    A#3 A#3 A#3 A#3 D4  C4
    fue perderme en tu amor
    
    C4C C4 C4 A4  C4 D4
    simplemente    pasó
    
    D4 D4 D4 D4 C4 D4 E4
    y todo tuyo ya  soy.
    
    CORO
    
    D4 F4 G4 A4 D4 C4  F4  G4 A4 G4 D4 C4
    Antes que pasé mas tiempo contigo amor
    
    C4 E4 F4 G4 A4  C4 E4 F4 G4 A4   G4 A4 D4 C4
    tengo que decir que eres el amor de mi vida.
    
    D4 F4  G4  A4  D4 C4  F4  G4 A4 G4 D4 C4
    Antes que te ame más, es
  • +
    ¡Colabora con nosotros!
    Envíanos tu versión de esta canción
  • Tutorial
    HD
    Como Tocar Todo cambio en guitarra (HD)
    Tutorial Acordes
    3:45
  • Tutorial
    HD
    Todo cambió - Camila - como tocar Intro Tutorial
    2:33
  • Tutorial
    HD
    Como Tocar (Todo Cambio )
    De Camila Guitarra Tutorial
    8:27

Letra de Todo Cambió
Todo cambió, cuando te vi, oh oh!
de blanco y negro a color, me convertí,
y fue tan fácil, quererte tanto, F/A 5XX565
algo que no imaginaba,
fue entregarte mi amor, con una mirada.
(mismos acordes)
Todo tembló, dentro de mí,
el universo escribió, que fueras para mí,
y fue tan fácil, quererte tanto,
algo que no imaginaba,
fue perderme en tu amor simplemente pasó y todo tuyo ya soy.
Antes que pase más, tiempo contigo amor,
tengo que decir que eres el amor de mi vida,
antes que te ame más, escucha por favor,
déjame decir que todo te di.
Y no hay, como explicar,
pero menos, dudar,
simplemente así lo sentí,
cuando te vi.
(mismos acordes)
Me sorprendió, todo de ti,
de blanco y negro al color, me convertí,
sé que no es fácil, decir te amo,
yo tampoco lo esperaba,
pero así es el amor simplemente pasó y todo tuyo ya soy.
FINAL
Todo cambió, cuando te vi.




[Todo Cambió chords][Todo Cambió cifra]
© LaCuerda.net · aviso legal · privacidad · es · en · pt · contacto