Acordes de Guitarra » C »Camila » Perdón (Tab)

Perdón
Camila

Letras, Acordes y Tabs para Guitarra, Bajo y Ukulele

  • F Am - F G
    
    G                           Bm
    Prometí quererte para siempre
           E - E7                   Am
    y era cierto no había dudas en mi mente
    Cm                             G
    Si el destino tuvo planes diferentes
           B7           Em     C
    y te herí por accidente, perdón
    
    
    
    Em        D     G  Em        D     G
    Si me solté de ti, si no te defendí,
    E                           Am
    fue que mi corazón estaba ciego
    Cm                          G
    Que estupidez perderte para verlo
         E
    
  • Intro: C# A#m C# G#
    
     G#  D#    G#         Cm
    Prometí quererte para siempre
          F7                           A#m
    Y era cierto, no había dudas en mi mente
             C#m                  G#
    Si el destino tuvo planes diferentes
          C         C#
    Y te vi por accidente, perdón
    Fm       D#     G# Fm       D#   G#
    Si me solté de ti, si no te defendí
    F7                        A#m
    Fue que mi corazón estaba ciego
    C#m                            G#
    Que estúpido es perderte para verlo
        F7
    Lo siento
    
         A#m          C#/G#
    
  • Intro: Gbmaj7 - Bbm7 - Gbmaj7 - Eb
    
    
    G#                    Cm
    Prometí quererte para siempre
          F7                          Bbm
    y era cierto no había dudas en mi mente
             C#m                G#
    Si el destino tuvo planes diferentes
           C7         Fm        C#
    y te herí por accidente, perdón
    
    
    
    Fm       Eb/ G  G#  Fm       Eb/ G  G#
    Si me solté  de ti, si no te defeeendí,
    F/A                        Bbm
    fue que mi corazón estaba ciego
    C#m                         G#
    Que estupidez perderte para verlo
    
  •   Fmaj7         G            Fmaj7             D
    e|---------------------------------------------3-----0-1-3----|
    B|-----8-10---------3-5--------8-13-12-10--8~--3---3-------1~-|
    G|-9-10---------4-5------------9-----------------2------------|
    D|-10------10~--5-------5/7~--10---------10----0--------------|
    A|-8------------0-------0------8------------------------------|
    E|------------------------------------------------------------|
    
    ESTROFA:
       G              Bm             E     E7      Am            Cm
    e|--------------------2-----2----------------------0-----0-------3----
    B|------------3----3-----3----------0------0----1-----1-------4-----4-
    G|-0-0-2-0-4-0--0----4-4---4-4---1------1---------2-2---2-2-----5-5---
    D|--0---0---0--0----4---4-4---4----2-2----0-0----2---2-2---2---5---5--
    A|-----------------2-----2--------2---2--2---2--0-----0-------3-----3-
    E|-3---3---3--3------------------0------0-----------------------------
    
     G      B7      Em   Cmaj7
    ---------------------------|
    ----3-------0--------------|
    
  • +
    ¡Colabora con nosotros!
    Envíanos tu versión de esta canción
  • Tutorial
    HD
    Como tocar "Perdón" de Camila - Tutorial Guitarra + TAB PARTE 1
    10:12
  • Tutorial
    Camila - "Perdón" tutorial de Pablo.
    15:21

Letra de Perdón
Prometí quererte para siempre
y era cierto no había dudas en mi mente
Si el destino tuvo planes diferentes
y te herí por accidente, perdón
Si me solté de ti, si no te defendí,
fue que mi corazón estaba ciego
Que estupidez perderte para verlo
Lo siento
No espero amor ni odio, ya tengo bastante con mi dolor
Maldigo el episodio, lo peor es que yo fui quien lo escribió
Me esperan los demonios que deja tu olvido, que juegan conmigo,
Ya se que es cobarde pedirte en una canción...
Perdón
Si pudiera regresar el tiempo
esta vez no escondería lo que siento
El silencio fue el engaño mas violento
Mi terrible experimento falló
Si te alejé de mi, si te fallé y me fui
fue porque mis mentiras me daban miedo
Tu me creíste y yo me volví tan bueno
fingiendo
No espero amor ni odio, ya tengo bastante con mi dolor
Maldigo el episodio, lo peor es que yo fui quien lo escribió
Me esperan los demonios que deja tu olvido, que juegan conmigo,
Ya se que es cobarde pedirte en una canción...
Perdón
Perdon
Ending:




[Perdón chords][Perdón cifra]
© LaCuerda.net · aviso legal · privacidad · es · en · pt · contacto