Acordes de Guitarra » C »Camila » Mientes (Tab)

Mientes
Camila

  • Letra y Acordes
        G#            F#
    E---4------------|---------|
    A----------------|-4-------|
    D---6-------6----|-4-------|
    G---5-------5----|-3-------|
    B-----2-------2--|---------|
    e-------4--------|---------|
    
    final del intro:
    E-----------4--|----|
    A---4---6------|----|
    D---4---6---6--|----|
    G---3-3/5-5/6--|----|
    B--------------|----|
    e--------------|----|
    
    
    G#      F#
    Tú llegaste a mi vida para enseñarme,
    G#      F#
    
  • Letra y Acordes
    Intro: G# / F# (BIS 4)
    
    G#      F#
    Tú llegaste a mi vida para enseñarme,
    G#      F#
    tú, supiste encenderme y luego apagarme,
    G#       F#
    tú, te hiciste indispensable para mi, y... y...
    
    Y con los ojos cerrados te seguí,
    si yo busqué dolor lo conseguí,
                               F#        F#        F#
    no eres la persona que pensé, que creí, que pedí.
    
    
    C#9                                    A#m
    Mientes, me haces daño y luego te arrepientes
                              F#
    ya no tiene caso que lo intentes
                             G#
    
  • Letra y Acordes
    INTRO: G - F - G - F - G - F - G - C (ARPEJEADO)
    
    G
    TU
         F                             G
    LLEGASTE A MI VIDA PARA ENSEÑARME TU
      F                             G
    SUPISTE ENCENDERME Y APAGARME TU
          F
    TE HICISITE INDISPENSABLE PARA MI I I I
    
    G
    Y
         F                       G
    CON LOS OJOS CERRADOS TE SEGUI
        F                         G
    SI YO BUSQUE DOLOR LO CONSEGUI
         F
    NO ERES LA PERSONA QUE PENSE, QUE CREI, QUE PEDI
    
    
  • Tablatura
    E          022100
    E(2°p)     222452---->x22442
    F#         044302
    Badd9      224422
    Badd9/G#   424422
    E°(arreglo)022100---->022130
    F#sus6     244422
    G          355433
    G#m        466444
    G5         355xxx
    
    Riff 1° Guitarra Acustica
    
    Intro:
         F#                 E
    e|---------2------------------------------|
    b|------0--------0------------------------|
    g|---3--------3---------1-----------------|
    D|---4------------------2-----------------|
    A|---4------------------2-----------------|
    
  • Tablatura
    F#*------044302
    Badd9----224422----224322
    Badd9*---424422
    E--------022100
    E*-------x22452----x22442----x22452
    E**------022100----022130----022103
    F#sus----244422
    G--------320033
    Gm#------466444
    
    Intro:
    
        F#*                       E
    e|---------2------------------------------|
    b|------0--------0------------------------|
    g|---3--------3---------1-----------------|  X3
    D|---4------------------2-----------------|
    A|---4------------------2-----------------|
    E|----------------------------------------|
    
    
  • Tablatura
        F#                        E
    e|---------2------------------------------|
    b|------0--------0------------------------|
    g|---3--------3---------1-----------------|  X3
    D|---4------------------2-----------------|
    A|---4------------------2-----------------|
    E|----------------------------------------|
    
    e|---------2------------------------------|
    b|------0---------0------1----3----4------|
    g|---3---------3---------2----4----6------|
    D|---4------------------------------------|
    A|---4------------------------------------|
    E|----------------------------------------|
    
    VERSO
    e|---------2------------------------------|
    b|------0--------0------------------------|
    g|---3--------3---------1-----------------|
    D|---4------------------2-----------------|
    
  • Tablatura
       FA#          MI7  FA#          MI7
    E------2----------:------2----------
    A----0-------0----:----0-------0----
    D--3-------3----1-:--3-------3----1-
    G--4-----4------2-:--4-----4------2-
    B--4-----4--------:--4-----4--------
    e---------------0-:---------------0-
    
    E------2----------:------2----------------------
    A----0-------0----:----0-------0----------------
    D--3-------3----1-:--3-------3----1-------------
    G--4-----4------2-:--4-----4------2----1h3--3h5-
    B--4-----4--------:--4-----4---------2h4--4h6---
    e---------------0-:---------------0-------------
    
    Llegaste a mi vida para enseñarm supiste encenderme y luego apagarme
    E------2------------------------------:------2-----------------
    A----0-------0------------------------:----0-------0-----------
    D--3-------3----1---------------------:--3-------3----1--------
    G--4------------2---------------------:--4------------2--------
    
  • Tab p/Bajo
     NO ERES LA PERSONA
    
     QUE PENSE, QUE CREI, QUE PEDI.
    
     1   2   3   |
    
    G|------------|------------|------------|------------|
    D|------------|------------|------------|------------|
    A|------------|------------|------------|------------|
    E|----2---2---|2---2---2---|2---2---2---|2---2---2---|
    
    
                                MIENTES, ME HACES...
    
      1   2   3   |                         | 1  2   3
    
    G|------------|------------|------------|------------|
    D|------------|------------|------------|------------|
    A|------------|------------|4-----------|(4)---------|
    E|2---2---2---|2-----------|------------|--------4---|
    
      1   2   3   | 1  2   3   |            | 1  2   3   |
    
    G|------------|------------|------------|------------|
    D|------------|------------|------------|------------|
    A|4-----------|(4)-----3---|1-----------|(1)---------|
    E|------------|----4-------|------------|--------1---|
    
      1   2   3   |
    
    G|------------|------------|------------|------------|
    D|------------|------------|--------
  • Tab p/Bajo
    HOLA QUE TAL A QUI LES DEJO ESTA ROLA QUE ME LA PIDIO UN BRO
    
    EL BAJO EMPIEZA CON LA BATERIA CUANDO LA LETRA DE LA CANCION DICE ESOTO
    
     no eres la persona ue pense que crei
    
     ACORDES  F#
    G)----------------------------------------------------------------------
    D)----------------------------------------------------------------------
    A)----------------------------------------------------------------------
    E)------22222222222222222222222-----------------------------------------
    
    
      CORO1
       mientes me haces daño y luego te arrepientes
    
      ACORDES C#,A#m,F#,G#
    G)----------------------------------------------------------------------
    D)----------------------------------------------------------------------
    A)-4-44-4-44------------------------------------------------------------
    E)-----------6-66-6-66-2-22-2-22-4-4------------------------------------
    
    
     coro2
       llegas cuando estoy apunto de olv   )
                                           )  F#
      ACORDES  C#,A#m,F#,G#                ) que hoy es
  • +
    ¡Colabora con nosotros!
    Envíanos tu versión de esta canción
  • Tutorial
    HD
    Como tocar Mientes de Camila en Guitarra Acustica (HD)
    Tutorial Acordes Arpeguio
    5:37
  • Tutorial
    HD
    Como tocar "Mientes" de Camila - Tutorial Guitarra (Acordes)
    HD
    7:29
  • Tutorial
    Como tocar Mientes - Camila (guitarra)
    6:29

Letra de Mientes
final del intro:
Tú llegaste a mi vida para enseñarme,
tú, supiste encenderme y luego apagarme,
tú, te hiciste indispensable para mi, y.. y..
Y con los ojos cerrados te seguí,
si yo busqué dolor lo conseguí,
no eres la persona que pensé, que creí, que pedí.
Mientes, me haces daño y luego te arrepientes
ya no tiene caso que lo intentes
no me quedan ganas de sentir
Llegas cuando estoy a punto de olvidarte
busca tu camino en otra parte
mientras busco el tiempo que perdí
que hoy estoy mejor sin ti.
Voy de nuevo recordando lo que soy,
sabiendo lo que das y lo que doy,
en mi no queda espacio para ti, y... y... y...
Y el tiempo hizo lo suyo y comprendí
las cosas no suceden porque si,
no eres la persona que pensé, que creí, que pediii.
Mientes, me haces daño y luego te arrepientes
ya no tiene caso que lo intentes
no me quedan ganas de sentir
Llegas cuando estoy a punto de olvidarte
busca tu camino en otra parte
mientras busco el tiempo que perdí
que hoy estoy mejor sin ti,
que hoy estoy mejor sin ti.
Llegas cuando estoy a punto de olvidarte
busca tu camino en otra parte
mientras busco el tiempo que perdí
que hoy estoy mejor sin ti,
que hoy estoy mejor sin ti,
que hoy estoy mejor sin ti.



© LaCuerda.net · aviso legal · privacidad · contacto