Acordes de Guitarra » C »Camila » De Mí (Tab)

De Mí
Camila

Letras, Acordes y Tabs para Guitarra, Bajo y Ukulele

  • C#m
    Nunca había sentido algo así,
    F#m
    la vida me mantuvo siempre en paz,
    A
    llegaste a abrir las puertas del dolor
    E                        G#m
    y a regalar la soledad.
    
    C#m
    Tu piel envenenó mi corazón,
    F#m
    dejándome en completa oscuridad
    A
    y así en lugar de olvidarte yo,
    E                         G#m
    te fui queriendo mucho más
    
    F#m
    Y ahora estás aquí.
    
  • C#m
    Nunca habia sentido algo asi
    F#m
    la vida me mantuvo siempre en paz
    Am
    llegaste a abrir las puertas del dolor
        Em
    y a regalar la soledad
    
    C#m
    tu piel enveneno mi corazon
    F#m
    dejandome en completa oscuridad
    Am
    y asi en lugar de olvidarte yo
    Em
    te fui queriendo mucho mas
    
            F#m
    y ahora estas aqui
    
  • C#m
    Nunca había sentido algo así,
       F#m7
    la vida me mantuvo siempre en paz,
        A
    llegaste a abrir las puertas del dolor
         E          B
    y a regalar la soledad.
    
       C#m
    Tu piel envenenó mi corazón,
      F#m7
    dejándome en completa oscuridad
        A
    y así en lugar de olvidarte yo,
       E             B
    te fui queriendo mucho más.
    
              F#m7
    Y ahora estás aquí,
    
  • C#m
    Nunca habia sentido algo asi
       F#m
    la vida me mantuvo siempre en paz
        A
    llegaste a abrir las puertas del dolor
        E           B
    y a regalar la soledad
    
       G#m
    tu piel enveneno mi corazon
      F#m
    dejandome en completa oscuridad
        A
    y asi en lugar de olvidarte yo
         E            B
    te fui queriendo mucho mas
    
            F#m
    y ahora estas aqui
    
  • e.--------------------------------------------------------------------
    B.------0-----3--------0---------0-------0------0-2-0-2------2-------2
    G.-----2-----0----0--0-0--4--4---4------2------0-------2------0-----0-
    D.-2s4------0---0---------4---4-----2s4-------0----------------2---2-
    A.---------2--------------2------------------2------------------2-2-
    E.--------3---------------------------------3--------------------0-
    
    Add11/B
    Nunca había sentido algo así,
    Em
    la vida me mantuvo siempre en paz,
    G
    llegaste a abrir las puertas del dolor
    Dsus2           Asus2
    y a regalar la soledad.
    Add11/B
    Tu piel envenenó mi corazón,
    Em
    dejándome en completa oscuridad
    G
    
  •                  G                         Bm
    
    E ----------------3--------------------------------------------------------
    A -----------------------------------------2-------------------------------
    D ----2s4---------0---0--------------------------4---4---4-----------------
    G ---------2------0-----0--------2-4-2-----4-------4---4---4---------------
    B ----------------0-------0--0---------------------------------------------
    e -------------------------------------------------------------------------
    
    
    
                     G                      A                 Bm
    
    E ----------------3--------------------------------------------------------
    A --------------------------------------0-----------------2----------------
    D ----2s4---------0---0----------0---------------2---------4------4--------
    G ---------2------0----0----------0-------------2-2---0-----4----4---------
    B ----------------0------0-0------------2-020----------------3--3----------
    e ------------------------------------------------------------2------------
    
    
  • --------------------------------------------------------0------0-|
    --------------2-----------------------2-----------------0--0---0-|
    -------2-h-4----4-h-2------------2-h-4---4-4-2-4-------1----1--1-|
    -2-s-4-----------------4-4-2-s-4---------------------2---------2-|
    ---------------------------------------------------2-----------2-|
    -----------------------------------------------------------------|
    
    Acordes con capo en el segundo traste (nombres tomando en cuenta
    el capo)
    Y  posición de los dedos en los trastes contando desde éste).
    
    Emaj13 C#sus2   F#m  F#7sus4   A      E     B
    -0----|---2--|---0--|---0--|---3--|---5--|---5--|
    -2----|---2--|---0--|---0--|---3--|---5--|---5--|
    -2----|---4--|---0--|---2--|---0--|---7--|---6--|
    -0----|---4--|---2--|---0--|---0--|---7--|---7--|
    -2----|---2--|---2--|---2--|---2--|---5--|---7--|
    -X----|---2--|---0--|---0--|---3--|---5--|---5--|
    
    
    
  • +
    ¡Colabora con nosotros!
    Envíanos tu versión de esta canción
  • Tutorial
    HD
    De mi - Camila Guitarra Como tocar Tutorial
    13:41

Letra de De Mí
Nunca había sentido algo así,
la vida me mantuvo siempre en paz,
llegaste a abrir las puertas del dolor
y a regalar la soledad.
Tu piel envenenó mi corazón,
dejándome en completa oscuridad
y así en lugar de olvidarte yo,
te fui queriendo mucho más
Y ahora estás aquí.
Viéndome sufrir.
Dime, ¿cómo debo hacer
para olvidarme de tus besos
y sacarte para siempre de mi?
De mi... De mi... De mi..
Lo supe en el momento en que te vi,
quererte iba a dolerme de verdad,
pero volví a mirarte y comprendí,
que iría contigo hasta el final.
Y ahora estás aquí.
Viéndome sufrir.
Dime, ¿cómo debo hacer
para olvidarme de tus besos
y sacarte para siempre de mi?
De mi... De mi... De mi
Intente alejarme.
No pensarte más, no pensarte más.
Me dolió entregarme,
como nunca... lo hice jamás.
De mi…
De mi…
De mi…
De mi…
Transcripciones, ayudas u opiniones al correo




[De Mí chords][De Mí cifra]
© LaCuerda.net · aviso legal · privacidad · es · en · pt · contacto