Acordes de Guitarra » C »Camila » Aléjate de mí (Tab)

Aléjate de mí
Camila

Letras, Acordes y Tabs para Guitarra, Bajo y Ukulele

  •       C#m       B       A             C#m       B       A
    e---------------------------------------------------------------
    B---4--5-----5--4-------2-----------4--5-----5--4-------2-------
    G-6--------6--------4-------2-----6--------6--------4-------2---
    D--------6--------4-------2--------------6--------4-------2-----
    A------4--------2-------0--------------4--------2-------0-------
    E---------------------------------------------------------------
    
    
     C#m                   B                         A
    Aléjate de mi y hazlo pronto antes de que te mienta
       C#m                        B               A
    Tu cielo se hace gris yo ya camino bajo la tormenta
     C#m                 B               A
    Aléjate de mi escapa vete ya no debo verte
      C#m                           B                A
    Entiende que aunque pida que te vayas, no quiero perderte
    
    
       G#m         C#m         A                            Bsus4   B
    
  •     C#m       B       A            C#m      B     A
    e------------------------------------------------------
    B---4-5----5--4-------2-----(0)---4-5----5--4-----2----
    G-6---6---6---4---4---2---2------6--6---6---4--4--2--2-
    D-----6--6----4--4----2--2----------6--6----4-4---2-2--
    A-----4-------2-------0-------------4-------2-----0----
    E------------------------------------------------------
    
     C#m                     B                       A
    Alejate de mi y hazlo pronto antes de que te mienta.
    
        C#m                            B               A
    Tu cielo se hace gris , yo ya camino bajo la tormenta.
    
      C#m                   B                  A
    Alejate de mi, escapa ve que ya no debo verte.
    
       C#m                           B                   A
    Entiende que aunque pida que te vayas, no quiero perderte.
    
    
  •   Am                     G                       F
    Alejate de mi y hazlo pronto antes de que te mienta.
    
         Am                          G               F
    Tu cielo se hace gris , yo ya camino bajo la tormenta.
    
       Am                   G                  F
    Alejate de mi, escapa ve que ya no debo verte.
    
       Am                           G                   F
    Entiende que aunque pida que te vayas, no quiero perderte.
    
    
    VERSO:
    
        Em          Am
    La luz ya, no alcanza…..
    
         F                                 G
    No quieras caminar sobre el dolor descalza…
    
  • INTRO: C#m B A
    
    
    
     C#m                     B                       A
    Alejate de mi y hazlo pronto antes de que te mienta.
    
        C#m                            B               A
    Tu cielo se hace gris , yo ya camino bajo la tormenta.
    
      C#m                   B                  A
    Alejate de mi, escapa ve que ya no debo verte.
    
       C#m                           B                   A
    Entiende que aunque pida que te vayas, no quiero perderte.
    
    
    VERSO:
    
        G#m          C#m
    
  •     Am       G      F      Am        G    F
    e------------------------------------------------------
    B---0-1----1--------------0--1----1--------------------
    G-2-------2------0--2---2-------2------0--3------------
    D--------2-----0----3--2-------2-----0----3------------
    A-------0-----------3---------0-----------3------------
    E------------3----------------------3------------------
    
    e------------------------------------------------------
    B-------1--1-------------------1---1-------------------
    G---------2------0--2---2--------2------0--2---2-------
    D--------2-----0----3--3-3------2-----0----3--3-3------
    A-------0-----------3----------0-----------3-----------
    E------------3----------------------3------------------
    Alejarte de mi y hazlo pronto antes de que te mienta.
    e------------------------------------------------------
    B-------1--1-------------------1---1-------------------
    G---------2------0--2---2--------2------0--2---2-------
    D--------2-----0----3--3-3------2-----0----3--3-3------
    A-------0-----------3----------0-----------3-----------
    
  •  Am7/5      Fmaj7/C     Em/A*
    e|--0--|   e|--0--|   e|--0--|
    B|--1--|   B|--1--|   B|--0--|
    G|--0--|   G|--2--|   G|--0--|
    D|--3--|   D|--3--|   D|--2--|
    A|--0--|   A|--3--|   A|--0--|
    E|-----|   E|-----|   E|-----|
    
    ==INTRO==
    e|-------------------------|-------------1-----------|
    B|----0--1-----1--0--------|----0--1--------0--------|
    G|--2--------2--------0-2--|--2--------2--------0-2--|
    D|---------2--------0---3--|--2------2--------0---3--|
    A|-------0--------------3--|-------0--------------3--|
    E|----------------3--------|----------------3--------|
    
    ==ESTROFA==
    
    Alejate de mi y hazlo pronto antes de que te mienta.
    e|---------------------------|
    
  •   Y PUSO EN MI BOCA...
    
      1   2   |                 |1   2 . . . |
    
    G|2-------|--------|4-4-----|2---4--/4---|
    D|--------|--------|--------|------------|
    A|--------|--------|--------|------------|
    E|--------|--------|--------|------------|
    B|--------|--------|--------|------------|
    
    
      CORO:
    
      1   2   | 1   2 . . . |
    
    G|--------|-------------|--------|8-------|
    D|2-------|(2)----------|--------|--------|
    A|--------|-------2-4-7-|6-----6-|----6---|
    E|--------|-------------|--------|--------|
    B|--------|-------------|--------|--------|
    
      1   2   |
    
    G|--------|--------|--------|--------|--------|
    D|--------|--------|--------|--------|--------|
    A|4---4---|2---2---|0-----0-|2---2---|0---2---|
    E|--------|--------|--------|--------|--------|
    B|--------|--------|--------|--------|--------|
    
      1   2   |1   2 . . .
    
    G|--------|------------|--------|--------|
    D|2-------|2---------2-|1----------------|
    A|--------|--------2---|--------|--------|
    E|--------|------------|--------|--------|
    B|------
  • +
    ¡Colabora con nosotros!
    Envíanos tu versión de esta canción
  • Tutorial
    HD
    Alejate de Mi - Camila Guitarra Como tocar tutorial how to play
    5:49
  • Tutorial
    HD
    Como Tocar (Alejate De Mi )
    De Camila Guitarra Tutorial.HD
    8:49

Letra de Aléjate de mí
Alejate de mi y hazlo pronto antes de que te mienta.
Tu cielo se hace gris , yo ya camino bajo la tormenta.
Alejate de mi, escapa ve que ya no debo verte.
Entiende que aunque pida que te vayas, no quiero perderte.
VERSO:
La luz ya, no alcanza…..
No quieras caminar sobre el dolor descalza…
Un Angel te cuida…….
Y puso en mi boca la verdad para mostrarme la salida….
Y alejate de mi amor….
Yo se que aun estas a tiempo….
No soy quien en verdad parezco….
y perdon no soy quien crees yo no cai del cielo
Si aun no me lo crees amor……
y quieres tu correr el riesgo
veras que soy realmente bueno
en engañar y hacer sufrir uooo
a quien mas quiero [x2]
Alejate de mi pues tu bien sabes que no te merezco
quiciera arrepentirme, ser el mismo y no decirte esto
Alejate de mi, escapa, vete ya no debo verte
Entiende que aunque pida que te vayas no quiero perderte.
VERSO:
La luz ya, no alcanza…..
No quieras caminar sobre el dolor descalza…
Un Angel te cuida…….
Y puso en mi boca la verdad para mostrarme la salida….
Y alejate de mi amor….
Yo se que aun estas a tiempo….
No soy quien en verdad parezco….
y perdon no soy quien crees yo no cai del cielo
Si aun no me lo crees amor……
y quieres tu correr el riesgo
veras que soy realmente bueno
en engañar y hacer sufrir y hacer llorar
a quien mas quiero uooo uooo uoo
Y alejate de mi amor….
Yo se que aun estas a tiempo….
No soy quien en verdad parezco….
y perdon no soy quien crees yo no cai del cielo
Si aun no me lo crees amor……
y quieres tu correr el riesgo
veras que soy realmente bueno
en engañar y hacer sufrir uoo
a quien mas quiero
a quien mas quiero




[Aléjate de mí chords][Aléjate de mí cifra]
© LaCuerda.net · aviso legal · privacidad · es · en · pt · contacto