Acordes de Guitarra » B »Los Bunkers » El Detenido (Tab)

El Detenido
Los Bunkers

Letras, Acordes y Tabs para Guitarra, Bajo y Ukulele

  •     LA                DO#m         SOL          RE
    1-Tantas Huellas que cicatrizar, sin una explicación
    LA                DO#m
    en el suelo de cualquier lugar
        SOL             RE
    que no lo alcanza el sol
    
      FA            LA    FA
    2-donde la realidad, duerme escondida
    
    
    1-ya no puedo desaparecer, sin una explicacion
    en el aire siempre quedara metralla al corazón
    
       FA          LA     FA        SOL/DO(3)     MIm/RE
    2-rafaga sin cesar, nada que perdonar, perdonar
    
         SOL      DO      SOL           DO
    Coro:soy un detenido soy, mi sueño no descansa
     SOL     DO   MIm/RE
    
  •      A              E/G#         A/G         D/F#
    Tantas huellas que cicatrizar, sin una explicación
    A              E/G#
    En el suelo de cualquier lugar
    G         D/F#
    Pero no lo alcanza el sol
    
    Puente
       F       A           F
    Donde la realidad, duerme escondida
    
    Verso
       A              E/G#         A/G         D/F#   F   (ojo con este F)
    Ya no puedo desaparecer, sin una explicación   OOhh!!
       A              E/G#         A/G         D/F#
    En el aire siempre quedara metralla al corazón
    
    Puente
       F        A     F
    Ráfaga sin cesar, nada que perdonar
    
  • Esto es lo que se escucha por detras en el detenido ( en el coro ).
    
    Nada que perdonar...
    
    
      --------------------------------|----------------------------------
      --------------------------------|----------------------------------
      --------------------------------|----------------------------------
      --------------------------------|----------------------------------
      ---------0--2----3-3---5---7----|----------0--2----3-3---5---7-----
      ----3-3-------------------------|----3--3--------------------------
    
    
      -------------------------------------------------------------------
      -------------------------------------------------------------------
      -------------------------------------------------------------------
      --------------------------------5--------7---5--4-5--4-------------
      ---------0--2----3-3---5---7--------7--------------------5---------
      ----3-3------------------------------------------------------------
    
    
      Todo esto de repite 3 veces.
    
      Tambié
  • Verso
         
    Tantas huellas que cicatrizar, sin una explicación
    En el suelo de cualquier lugar
    Pero no lo alcanza el sol
    G------------------------------------------
    D------------------------------------------
    A-----------4-4-4-4-4-----------5-5-5-5-5--
    E-5-5-5-5-5-----------3-3-3-3-3------------
    
    Puente
    Donde la realidad, duerme escondida
    G------------------------------------------
    D------------------------------------------
    A-------5-5-5-5-5--------------------------
    E-1-----------------1----------------------
    
    Verso
    Ya no puedo desaparecer, sin una explicación
    En el aire siempre quedara metralla al corazón
    
    Puente
    Ráfaga sin cesar, nada que perdonar
    Perdonar...
    
    Coro:
    Soy un detenido soy, mi sueño no descansa
    Desaparecido voy 
    
    G----------------------------|-------------------------
    D----------------------------|-------------------------
    A------0--2---3-3---5---7----|------0--2---3-3--5---7--
    E-3-3------------------------|-3-3---------------------
    
  • Los bunkers
    -El Detenido.
    
    A)
    
    Tantas huellas que cicatrizar...
    
    G---------------------------------------------
    D---------------------------------------------
    A--0-0-0-0-0--4-4-4-4-4--------------5-5-5-5-5
    E------------------------1~3-3-3-3-3----------
    
    En el suelo de cualquier lugar..
    
    G-----------------------------------------------------
    D-----------------------------------------------------
    A--0-0-0-0-0--4-4-4-4-4--------------5-5-5-5-5---(7-7-7) >> Variacion optativa.
    E------------------------1~3-3-3-3-3------------------
    
    Donde la realidad, duerme escondida...
    
    G------------------------------------------
    D------------------------------------------
    A-8~---12-12-12-12-11-11---8~--------------
    E------------------------------------------
    
    B)
    
    Ya no puedo desaparecer, sin una explicación...
    
    G---------------------------------------------
    D---------------------------------------------
    A--0-0-0-0-0--4-4-4-4-4--------------5-5-5-5-5
    E--------------------
  • Verso 1
         A             E/G#         A/G      D/F#
    Tantas huellas que cicatrizar, sin una explicación
    G------------------------------------------
    D------------------------------------------
    A------------------------------------------
    E-5-5-5-5-5--4-4-4-4--3-3-3-3-3--2-2-2-2---
    
         A             E/G#         A/G            D/F#
    En el suelo de cualquier lugar, Pero no lo alcanza el sol
    
    G------------------------------------------
    D------------------------------------------
    A------------------------------------------
    E-5-5-5-5-5--4-4-4-4--3-3-3-3-3--2-2-2-2---
    
    Puente
        F          A               F
    Donde la realidad, duerme escondida
    G------------------------------------------
    D------------------------------------------
    A--8~------------------8s15-----------------
    E---------5-5-5-5----------------------------
    
    Verso 2
    
       A             E/G#         A/G      D/F#   F
    Ya no puedo desaparecer, sin una explicación
    G------------------------------------------
    D-------------------------
  • +
    ¡Colabora con nosotros!
    Envíanos tu versión de esta canción

Letra de El Detenido
1-Tantas Huellas que cicatrizar, sin una explicación
en el suelo de cualquier lugar
que no lo alcanza el sol
2-donde la realidad, duerme escondida
1-ya no puedo desaparecer, sin una explicacion
en el aire siempre quedara metralla al corazón
2-rafaga sin cesar, nada que perdonar, perdonar
desaparecido voy (2 veces)
3-he aprendido a abrazar la soledad
tengo miles de recuerdos para armar
ya no puedo desaparecer...
inter.:LA/DO#m/SOL/RE
nada que perdonar, nada que olvidar, que olvidar
Que olvidar....




[El Detenido chords][El Detenido cifra]
© LaCuerda.net · aviso legal · privacidad · es · en · pt · contacto