Acordes de Guitarra » B »Los Bunkers » Carreron (Tab)

Carreron
Los Bunkers

  • Tablatura
             C9           F9           C9           F9 
    E|----------------------------------------------------------||
    B|----------------------------------------------------------||
    G|----------------------------------------------------------||x4
    D|------------------1-3-3-3-1-3-1-------------1-3-3-3-1-3-1-||
    A|---1-2-3--3-1-3-3---------------1-3-3-1-3-3---------------||
    e|-3--------------------------------------------------------||
    
    
    Fig.2
                        G9                      G9 
    E|-----------------------------------------------------------
    B|-----------------------------------------------------------
    G|-----------------------------------------------------------
    D|-3-3/5-5-3-5-5-3-5-5-3-5---3-4-5-5-3-5-5-3-5-5-3-5---------
    A|--------------------------5--------------------------------
    e|-----------------------------------------------------------
    
                C9 
    E|------------||
    
  • +
    ¡Colabora con nosotros!
    Envíanos tu versión de esta canción

Letra de Carreron
Fig.2
Después se repite lo mismo pero la otra guitarra hace un solo
Outro:
Simbología (por siaca)
/ = arrastrar dedo de un traste a otro
x = No se toca esa cuerda
v = Vibrato
|| = se repite indetermidas veces (ahí ustedes ven cuantas
veces se repite)
Acordes Usados
E|-x-|-x-|-x -|
e|-x-|-x-|-x -|
Como cacharon la canción es bien simple pero es muuuy weena!



© LaCuerda.net · aviso legal · privacidad · contacto