Acordes de Guitarra » B »los Babasónicos » Como eran las cosas (Tab)

Como eran las cosas
los Babasónicos

Letras, Notas, Punteos, Tablaturas y Acordes de Guitarra (Tabs & Chords)

  • Letra y Acordes
    G
    Creo que es momento
         Am
    para otra bomba de humo
       C           G
    y batirme en retirada
    
              Bm7          Am
    Nuestra sociedad... me perjudica
                     F       G
    vos no sos una chica cualquiera...
    
    Em (sin rasguido)            Am
    ...    Que ridículo es que pienses
        C                        G
    que todo es tuyo, inclusive yo
    
    Bm7           Em
    ... Todo eso tuyo puede ser
    C                           Bm7
    
  • Letra y Acordes
    Intro: SOL# - LA#m - DO# -SOL#
           DOm - LA#m - DO# - SOL#
    
    
    SOL#                     LA#m
    Creo que es momento para otra bomba de humo
        DO#         SOL#
    y batirme en retirada
            DOm             LA#m
    Nuestra sociedad me perjudica
                   DO#        SOL#
    Vos no sos una chica cualquiera
    
    
    FAm                  LA#m
    Que ridículo es que pienses
                DO#            SOL#
    Que todo es tuyo inclusive yo
    DOm      FAm
    Todo eso tuyo puede ser
    
  • Letra y Acordes
    SOL#                      LA#
    Creo que es momento para otra bomba de humo
        DO#              SOL#
    y batirme en retirada
    SOL#                      LA#
    Nuestra sociedad me perjudica
                    DO#           SOL#
    Vos no sos una chica cualquiera
    FAm                     LA#
    Que ridículo es que pienses
                DO#            SOL#
    Que todo es tuyo inclusive yo
    SOL#                LA#
    Todo eso tuyo puede ser
               DO#                RE#
    Pero esta noche es para los dos
    
    ESTRIBILLO
    DO#                               SOL#
    Quizás fue en la mañana en que vendados los dos
    
  • Tablatura
    Hola, esta es mi primera transcripción así que espero que
    la escuchen casi igual al CD, si tienen dudas kinki-fer@hot..
    Saludos desde el DF
    
    Intro
    
    e-------------------------------------------------------------4-
    b----9----------------9---------------------------------------4-
    g----------------8/10---10--8~------8-------------------------5-
    d-8~---8h10p8-6~----------------8/10---10-8-----6h8-6---------6-
    a------------------------------------------11-- 6h8-6-6h8-6---6-
    E-----------------------------------------------------6h8-6---4-
  • Tab p/Bajo
    Aqui el bajeo de una de las mejores rolas del disco MUCHO,
    si encuentran algun error les agredeceria que me lo notificaran
    al correo showtime_qc@yahoo.com.mx
    Esta es de las favoritas de mi nena...JOANA TE AMO!!!
    
    intro 0.05
    
    G----------------|
    D----------------|
    A---1-4---3-1----|
    E-4-----4-----2-4|
    
    verso 1
    
    "Creo que es momento para..."
    G--------------------|
    D--------------------|
    A---1-4---3-1--------|
    E-4-----4-----2-44-44|
    
    verso 2
    
    "Que ridiculo es que pienses..."
    G------------------------|
    D------------------------|
    A---1-4---3---44-44-66-66|
    E-1-----4---1------------|
    
    coro
    G-------------------------------------------------------------
    D-------------------------------------------------------------
    A-4444-4444---------------------1111-1111-4444-4444-3333-3333-
    E-----------4444-4444-1111-1111-------------------------------
    
    ------------------------|
    ------------------------|
    -----------3333-3333----|
    -1111-1111--------------|
    
    verso 3
    
    "Entonces deshace el hechizo..."
    
    G--------
  • +
    ¡Colabora con nosotros!
    Envíanos tu versión de esta canción

Letra de Como eran las cosas
Creo que es momento para otra bomba de humo
y batirme en retirada
Nuestra sociedad me perjudica
Vos no sos una chica cualquiera
Que ridículo es que pienses
Que todo es tuyo inclusive yo
Todo eso tuyo puede ser
Pero esta noche es para los dos
Quizás fue en la mañana en que vendados los dos
Descubrimos como eran las cosas
Y sin abrir los ojos nos teletransportamos
A donde desearíamos estar
Entonces deshace el hechizo que me obliga a arrastrarme
Entre Guinea y tus sabanas
Nuestra sociedad no ayuda mucho
Mientras la pasas bien, yo lucho
Quizás fue en la mañana en que vendados los dos
Descubrimos como eran las cosas
Y sin abrir los ojos nos teletransportamos
A donde desearíamos estar
Quizás fue en la mañana en que vendados los dos
Descubrimos como eran las cosas
Y sin abrir los ojos nos teletransportamos
A donde desearíamos estar
Pero también lo siento
Que solo es un momento
Que todos deberíamos pasar
Quizás fue en la mañana en que vendados los dos
Descubrimos como eran las cosas
Y sin abrir los ojos nos teletransportamos
A donde desearíamos estar
Quizás fue en la mañana en que vendados los dos
Descubrimos como eran las cosas
Y sin abrir los ojos nos teletransportamos
A donde desearíamos estar.
Agustin|

Videos de Como eran las cosas
[ver más videos]

[ver todas las canciones]


© LaCuerda.net · Aviso Legal · Privacidad