Acordes de Guitarra » B »los Babasónicos » Pijamas (Tab)

Pijamas
los Babasónicos

Letras, Acordes y Tabs para Guitarra, Bajo y Ukulele

  •  LAm  - DO - FA  - SOL
           MIm  -LAm  -FA  -SOL
    
    
            LAm       DO
        Te llamé para vernos
    FA                 SOL
        se me ocurren tantas cosas
    MIm              LAm
        empezar por juntarnos
             FA         SOL
        para no hacer nada.
    
    LAm                DO
        Te propuse mi casa,
              FA        SOL
        nada neutro
    MIm              LAm              FA
        Te dije traé tus pijamas que yo
           REm             SOL
    
  • Intro: DO#m - MI - LA - SI
           SOL#m - DO#m - LA - SI
    
    
            DO#m      MI
        Te llamé para vernos
    LA                 SI
        se me ocurren tantas cosas
    SOL#m            DO#m
        empezar por juntarnos
             LA         SI
        para no hacer nada.
    
    DO#m               MI
        Te propuse mi casa,
              LA        SI
        nada neutro
    SOL#m            DO#m             LA
        Te dije "traé tus pijamas que yo
           FA#m            SI
    
  • e|----0-0-0----------2-2-2-----------4-4-4---------5-5-5----7-7--
    B|-0h2-2----(x2)--0h2-2-----(x2)--0h2-2----(x2)-0h2-2----0h2-----
    G|---------------------------------------------------------------
    D|---------------------------------------------------------------
    A|---------------------------------------------------------------
    E|---------------------------------------------------------------
    
    ·VERSOS:
    >Acordes de los VERSOS: C#m E A B / G#m C#m A B
    >(La guitarra Segunda no hace nada)
    
    >C#m E A B / G#m C#m A F#m B
    >(Aca empieza el acompañamiento de nuevo:)
    e|----0-0-0----------2-2-2-----------4-4-4------
    B|-0h2-2----(x2)--0h2-2-----(x2)--0h2-2----(x2)-
    G|----------------------------------------------
    D|----------------------------------------------
    A|----------------------------------------------
    E|----------------------------------------------
    
    
  • aqui les dejo el bajeo de esta buenisima rola de los babasonicos
    el ritmo es relativamente facil solo hay que guiarse kn la
    bateria
    espero que la disfruten para cualqueir aclaracion a mi correo
    showtime_qc@yahoo.com.mx
    
    Intro
    
    G-----------------------------------------------------------------|
    D-----------------------------------------------------------------|
    A-4-4-444---------0-0-000-2-2-222---------4-4-444-0-0-000-2-2-222-|
    G---------0-0-000-----------------4-4-444-------------------------|
    
    Verso 1
    
    "te llame para vernos..."
    
    G-----------------------------------------------------------------|
    D-----------------------------------------------------------------|
    A-4-4-444---------0-0-000-2-2-222---------4-4-444-0-0-000-2-2-222-|
    G---------0-0-000-----------------4-4-444-------------------------|
    
    Verso 2
    
    "te propuse mi casa..."
    
    G---------------------------------------------------------------------|
    D---------------------------------------------------------------------|
    A-4-4-444----
  • +
    ¡Colabora con nosotros!
    Envíanos tu versión de esta canción

Letra de Pijamas
Te llamé para vernos
se me ocurren tantas cosas
empezar por juntarnos
para no hacer nada.
Te propuse mi casa,
nada neutro
Te dije traé tus pijamas que yo
no duermo bien de noche
Por única vez te pido que entiendas
que este no es un cuento que lo invento yo
Por única vez te pido que entiendas
por única vez te pido que entiendas.
Te llamé para vernos
se me ocurren tantas cosas
empezar por juntarnos
para no hacer nada.
Te propuse mi casa,
nada neutro
Te dije traé tus pijamas que yo
no duermo bien de noche
Por mi cama pasa un río
y en el río un rebaño abreba al sol
y un pastor inmóvil sentado a mis pies
me canta
me canta
Por única vez te pido que entiendas
que este no es un cuento que lo invento yo
Por única vez te pido que entiendas
por única vez te pido que entiendas.
Corro espantado alejándome de todos
perdiéndome en la piel de un paria perseguido,
dejaba atrás un circo rey con oropel
quería contarte y que me seas todo oidos.
Te llamé para vernos
se me ocurren tantas cosas
Por única vez te pido que entiendas
que este no es un cuento que lo invento yo
Por única vez te pido que entiendas
por única vez te pido que entiendas.
Te llamé para vernos
se me ocurren tantas cosas
Te llamé para vernos
se me ocurren tantas cosas.....
Dudas este es mi correo:
relic_line@msn.com




[Pijamas chords][Pijamas cifra]
© LaCuerda.net · aviso legal · privacidad · es · en · pt · contacto